Song name
# A B C D E F G H I J K L M N O P Q R S T U V W X Y Z

Joey Cape - Home tab

This is the intro to HOME off Joey Cape's solo acoustic album "Bridge"

|------------------------------------------------| 
|-----3--------3-------3/4------4--------4-------| 
|--------0-------------------------0--------0----| 
|--1--------1------1---------1--------1--------1-| 
|------------------------------------------------| 
|------------------------------------------------|

|------------------------------------------------| 
|-----3--------3-------3/4------4--------4-------| 
|--------0-------------------------0--------0----| 
|--1--------1------1---------1--------1--------1-| 
|------------------------------------------------| 
|------------------------------------------------|

Tabbed by Adam Rulon
Tap to rate this tab
 
# A B C D E F G H I J K L M N O P Q R S T U V W X Y Z