Song name
# A B C D E F G H I J K L M N O P Q R S T U V W X Y Z

Joey Cape - Watch Me Bleed chords

Highlighted       Show chord diagrams
-----------------------------------------------------------------------------
			   WATCH ME BLEED - Joey Cape
-----------------------------------------------------------------------------
Tabbed by: backyp
Email: s.poll@gmx.net

Tuning: EADGBe

Intro:

e|---3--3----3--3---1--1-------------------------------------------------|
B|--1--1----1--1---1--1--------------------------------------------------|
G|-(0)-----(1)----(1)----------------------------------------------------| 2x
D|-----------------------------------------------------------------------|
A|-----------------------------------------------------------------------|
E|-----------------------------------------------------------------------|

Verse:
 
cm                       G#
  Heaven comes to he who waits
cm                       G#
  But I know I'm getting nowhere
fm                           D#
  And all the deeds of yesterday
              G                 cm
  Have really helped to pave my way

                                G#
  Though there's no one near me now
cm                      G#
  How come everyone can touch me
fm                          D#
  You see the torture on my brow
             G                cm
  Relates to neither here nor now

Chorus:

  Watch me bleed
G#           
  Bleed forever
cm
  Watch me bleed
G#           
  Bleed forever


fm                               D#
  Although my face is straight, it lies
          G                  cm
  My body feels the Pain and cries

Verse:
  Here the table is not bare
  I am full but feeling empty
  For all the warmth it feels so cold
  For one so young I feel so old

Chorus

fm                         D#
  It's not allowed to be unkind
                G                cm
  But still the hate lives in my mind

Bridge:

g#m
   I'll make no noise
                F#
   I'll hide my pain

   I'll close my eyes
              E
   I won't complain
                                    D#
   I'll lie right back and take the blame
                                a#m
   And trie to tell myself I'm living
                                  G#
   And when it's all been said or done

   Where do I go ?
              F#
   Where do I run ?
                           F
   What's left of me or anyone when we've denied the hurting ?

  cm-G#-cm-G#-fm-D#-G-cm

Chorus

fm                           D#
  And all the deeds of yesterday
              G                 cm
  Have really helped to pave my way

End/Outro:

e|---3--3----3--3---1--1-------------------------------------------------|
B|--1--1----1--1---1--1--------------------------------------------------|
G|-(0)-----(1)----(1)----------------------------------------------------| 2x
D|-----------------------------------------------------------------------|
A|-----------------------------------------------------------------------|
E|-----------------------------------------------------------------------|
Tap to rate this tab
 
# A B C D E F G H I J K L M N O P Q R S T U V W X Y Z