Song name
# A B C D E F G H I J K L M N O P Q R S T U V W X Y Z

Joey De Leon - Tasty Balls tab

                             TASTY BALLS!!!!

                               BY FOLDER
                         TO BRANDON AND BRYAN!!!!

[---------------------------------------------------------------------]
[---------------------------------------------------------------------]
[---------------------------------------------------------------------]  x2
[--7-7--11--9--7-------11--9--7--------11--9--7---0-0--11--9--7-------]
[-----------------7-7-------------9-9---------------------------------]
[---------------------------------------------------------------------]

IV GOT TASTY BALLS YOUV GOT TASTY BALLS...YOUV GOT TASTY BALLS..
WEV GOT TASTY BALLS LOTS OF TASTY BALLS..LOTS OF TASTY BALLS!!!


[-----------------------------------]
[-----------------------------------]
[--9-9-9--------------------2-2-2---]
[--7-7-7--9-9-9---11-11-11--0-0-0---]   x2
[---------7-7-7---9--9--9-----------]
[-----------------------------------]
Tap to rate this tab
# A B C D E F G H I J K L M N O P Q R S T U V W X Y Z