Song name
# A B C D E F G H I J K L M N O P Q R S T U V W X Y Z

Johan Ludvig Runeberg - Maamme Finland National Anthem tab

Helpoin versio
by: killerarttu

e|-----------1---4-- -----1-------- ---1------------------|
B|---------4-------- -4-1---4-3-4-- -----4-3-1------------|
G|-4-1-2-4-----4---- -------------- -4---------4-2-1-4-2--|
D|------------------ -------------- ----------------------|
A|------------------ -------------- ----------------------|
E|------------------ -------------- ----------------------|
  Oi maamme...        soi sana...    ei laaksoa...

e|---1------------------ -------------1-4-- -----1--------|
B|-----4-3-1------------ ---4-------4------ -4-1---4-3-4--|
G|-4---------4-2-1-4-2-- -4---4-1-4-------- --------------|
D|---------------------- ------------------ --------------|
A|---------------------- ------------------ --------------|
E|---------------------- ------------------ --------------|
  ei vettä...             kuin kotimaa...    maa kallis...
Tap to rate this tab
# A B C D E F G H I J K L M N O P Q R S T U V W X Y Z