Song name
# A B C D E F G H I J K L M N O P Q R S T U V W X Y Z

Johann Johannsson - The Suns Gone Dim And The Skys Turned Black tab

Hey guys my first tab :) for this one it is a simple pattern and we are just doing the voice of
"The Suns Gone Dim, And the sky's gone black because i loved her and she didn't love back."
(be sure to put lots of reverb etc give it a dark sound)
Standard  Tuning

The suns gone dim and the sky's turned black 
e|------------------------------------------------------------------|
B|------------------------------------------------------------------|
G|------------------------------------------------------------------|
D|----2---3--0-----2-2------0---------------------------------------|
A|-0---------------------3------2-----------------------------------|
E|------------------------------------------------------------------|


 Cause I loved her and she didn't love back
e|------------------------------------------------------------------|
B|------------------------------------------------------------------|
G|------------------------------------------------------------------|
D|----2---3--0-----2-2------0---------------------------------------|
A|-0---------------------3------2-----------------------------------|
E|------------------------------------------------------------------|


http://www.johannjohannsson.com/
Tap to rate this tab
 
# A B C D E F G H I J K L M N O P Q R S T U V W X Y Z