Song name
# A B C D E F G H I J K L M N O P Q R S T U V W X Y Z

Johann Kaspar Mertz - Capriccio In Am tab

time = 100 (Andante)

1   |   .   |   .   |   .   |   .       |   .   |   .   |   .   |   .
E|--------0-0-0-0-0-0-----------0----|--------0-1p0-0-0-0-----------0----|
B|------1-----------------------0----|------1-----------------------0----|
G|----2-------------------------1----|----2-------------------------1----|
D|-----------------------------------|-----------------------------------|
A|--0-------------------0------------|--0-------------------0------------|
E|--------------------------0--------|--------------------------0--------|

3   |   .   |   .   |   .   |   .       |   .   |   .   |   .   |   .
E --------0-5-------------1-1--------|--------0-1p0---0---0---0---0---0--|
B ------1---------------0------------|------0-------0--------------------|
G ----2---------------2--------------|----1-------------1----------------|
D ------------------------------0----|--2-------------------2---0--------|
A --0-----------0---0----------------|------------------------------2----|
E -----------------------------------|-----------------------------------|

5   |   .   |   .   |   .   |   .       |   .   |   .   |   .   |   .
E --------0-0-0-0-0-0-----------0----|--------0-1p0-0-0-0-----------0----|
B ------1-----------------------0----|------1-----------------------1----|
G ----2-------------------------1----|----2-------------------------2----|
D -----------------------------------|-----------------------------------|
A --0-------------------0------------|--0-------------------0------------|
E --------------------------0--------|--------------------------1--------|

7   |   .   |   .   |   .   |   .       |   .   |   .   |   .   |   .
E --------0-0-0-0-0-3----------------|--------0--------------------------|
B ------1----------------------------|------1-----1----------------------|
G ----0-------------------0----------|----0-----0-----0------------------|
D ----------------------3---2-3-0-2--|--------------2--------------------|
A -----------------------------------|--3---------------3=======---------|
E --3--------------------------------|-----------------------------------|

9   |   .   |   .   |   .   |   .       |   .   |   .   |   .   |   .
E --------0-0-0-0-0-0----------------|--------0-0-0-0-0-0----------------|
B ------0---------------0---1--------|------0---------------0---1--------|
G ----1-------------------------2----|----1-------------------------2----|
D -----------------------------------|-----------------------------------|
A -----------------------------------|-----------------------------------|
E --0-------------------0---0---0----|--0-------------------0---0---0----|

11  |   .   |   .   |   .   |   .       |   .   |   .   |   .   |   .
E --------0-0---0---0---0---0---0----|--0-----0---0---0---0---0---0---0--|
B ------0-------1-------0-------1----|--0--------------------------------|
G ----1---------2-------1-------2----|--1--------------------------------|
D -----------------------------------|------1---2---1---2---0------------|
A -----------------------------------|--------------------------3---2----|
E --0-----------0-------0-------0----|--0--------------------------------|

13  |   .   |   .   |   .   |   .       |   .   |   .   |   .   |   .
E --------0-0-0-0-0-0-----------0----|--------0-0-0-0-0-0-----------1----|
B ------1-----------------------0----|------1-----------------------0----|
G ----2-------------------------1----|----2------------------------------|
D -----------------------------------|--------------------------0--------|
A --0-------------------0------------|--0-------------------0------------|
E --------------------------0--------|-----------------------------------|

15  |   .   |   .   |   .   |   .       |   .   |   .   |   .   |   .
E --------0-0-------12------4--------|--5-------0-----------------------||
B ------1-------------------3--------|----------0-----------------------||
G ----2------------------------------|--5-------1-------2=======--------||
D -----------------------------------|----------------------------------||
A -----------------------------------|------0-----------0=======--------||
E --0-----------0-------0-------0----|--------------0-------------------||
Tap to rate this tab
# A B C D E F G H I J K L M N O P Q R S T U V W X Y Z