Song name
# A B C D E F G H I J K L M N O P Q R S T U V W X Y Z

Johann Krieger - Menuett tab

Menuett - Minueto
Author: Johann Krieger  b.1651 d.1735
Transcription by: Carlos Cordero
                  cachome@telcel.net.ve
                  http://www.geocities.com/vienna/waltz/2067/



                
                             "Menuett"



Key Signature: C Major
Time Signature: 3/4
Tablature Explanation at the End.



E-||--0-------|-1-------|---------|-0--------|------------|-------0-|------------|
B-||-----1----|---------|-3--0----|----------|------1-0---|---------|-3-1-0------|
G-||*-------2-|---------|-------0-|----------|-2--------2-|-1-------|----------2-|
D-||*---------|-0--2--3-|---------|----0--2--|-3------0---|-2-------|-0---2------|
A-||--0-------|---------|---------|-3--------|----3-------|-------3-|------------|
E-||----------|---------|-3-------|----------|------------|----0----|--------0---|
         1  2   1  2  3   4         3     2    2  3 1   2   1     3   4 1 2    3
                          3                    4            2


E-|--------||  ||--------0-|----------|----------|----------|----------|-------3-|
B-|--------||  ||--1--3----|----------|--0--1--3-|----------|-----0--1-|-0-------|
G-|---2.--*||  ||*-2-----0-|--2-------|--0-------|--0-------|--2--0--2-|-0--0----|
D-|-------*||  ||*---------|--3--2--0-|--------3-|--2--0----|--3-------|-------2-|
A-|---0.---||  ||----------|----------|----------|--------3-|----------|---------|
E-|--------||  ||----------|----------|----------|----------|----------|---------|
      3            1  3       2  1          1  4    3     3    2     1         4
                   2          3                3               3     2         2          


E-|-1-0--------|-------||
B-|-----3----1-|--1.---||
G-|-----0------|--0.--*|| Fine.
D-|-3----------|--2.--*||
A-|------------|--3.---||
E-|--------3---|-------||
    1   4  3 1    1
    3             2
                  3
........._

Tablature Explanation:
                                                                   cx------/

E-||------------|| |-------|---------|----(7----|-------|---------|---------|
B-||------------|| |-------|---------|----)7----|-------|---------|---------|
G-||*--repeat--*|| |--5/7--|--12p10--|----(5----|--1h4--|--<12>---|---------|
D-||*----------*|| |-------|---------|----)6----|-------|---------|---------|
A-||------------|| |-------|---------|----(6----|-------|---------|---------|
E-||------------|| |-------|---------|----)7----|-------|---------|---------|
                     Slur     pull     arpegiate  Hammer  Harmonic   Bar on
                              off                  on                x fret


......................................................_

E-|---Author:-Johann-Krieger--b.1651-d.1735--------|
B-|---Transcription-by:-Carlos-Cordero-------------|
G-|---E-Mail:-cachome@telcel.net.ve----------------|   
D-|---Look-More-Classical-Guitar-Tabs-at:----------|
A-|---http://www.geocities.com/vienna/waltz/2067---|
E-|---Enjoy!---------------------------------------|
......................................................_
Tap to rate this tab
# A B C D E F G H I J K L M N O P Q R S T U V W X Y Z