Song name
# A B C D E F G H I J K L M N O P Q R S T U V W X Y Z

Johann Pachelbell - Canon In D tab

Hi. I only tabbed the lead melody part because theres already a bunch of good ones 
out there, but this is a short remix.  I listened to it off of my sisters 
keyboard... It sounds great though so...

|     |=2 CHORDS

|D A|Bm F#m|G D|G A|

[These are whole notes]
   |    |    |    |       |    |    |    |
E|-14-12----------------|-14-12----------------|
B|------15-14-12--12-14-|------15-14-12--12-14-|
G|--------------14------|--------------14------|
D|----------------------|----------------------|
A|----------------------|----------------------|
E|----------------------|----------------------|
   |                  |
E|---------------------------------14-17-19----|
B|-15-14-15-------------15-14-12-14------------|
G|--------------14--11-------------------------|
D|---------12-11--14--12-----------------------|
A|---------------------------------------------|
E|---------------------------------------------|
   |                     |
E|-15-14-12-15-14-12---------------------------|
B|------------------15-14-12-------------------|
G|--------------------------14-12-11--12-11----|
D|----------------------------------14-----14--|
A|---------------------------------------------|
E|---------------------------------------------|
   |                    |  
E|---------------------------------------------|
B|------------------------12-------------------|
G|------11-12-14--14-12-11--14-12-14-12-11-----|
D|-12-14--------14------------------------14---|
A|---------------------------------------------|
E|---------------------------------------------|
   |                    |
E|---------------------------------------------|
B|-----12-14-15-14-12----------12--12----------|
G|-------------------14-12-11----14--14--------|
D|-12------------------------14----------------|
A|---14----------------------------------------|
E|---------------------------------------------|
   |                  
E|-17-14-15-17-14-15-17----------12-14-15------|
B|-----------------------12-14-15--------------|
G|---------------------14----------------------|
D|---------------------------------------------|
A|---------------------------------------------|
E|---------------------------------------------|
   |
E|-14--12-14-----------------------------------|
B|---15-------------12-------------------------|
G|----------11-12-14--14-12-14-11-12-----------|
D|---------------------------------------------|
A|---------------------------------------------|
E|---------------------------------------------|
   |
E|---------------------------------------------|
B|---12----------------------------12----------|
G|-12--14-12-11--11--------11-12-14------------|
D|-------------14--14-12-14--------------------|
A|---------------------------------------------|
E|---------------------------------------------|
   |
E|-------------------------12-14-15-17---------|
B|---12--12-14-15--12-14-15--------------------|
G|-12--14--------14----------------------------|
D|---------------------------------------------|
A|---------------------------------------------|
E|---------------------------------------------|
   [Whole notes]  [Not whole notes]
   |    |    |    |
E|-14-12------------12--12-14------------------|
B|------15-14-12--12--14---15------------------|
G|--------------14-----------------------------|
D|---------------------------------------------|
A|---------------------------------------------|
E|---------------------------------------------|
Tap to rate this tab
# A B C D E F G H I J K L M N O P Q R S T U V W X Y Z