Song name
# A B C D E F G H I J K L M N O P Q R S T U V W X Y Z

Johann Sebastian Bach - Bourree In E Minor tab

Help us improve GuitareTab! Take a short survey!
Bourree in E Minor
Johann Sebastian Bach


Arr: G Harper


E|-0--2-|-3--2--0-----0--2-|----------0-------|-----------------|
B|------|----------4-------|-0--2--4-----3--1-|-0---------------|
G|------|------------------|------------------|----2--0-----0-2-|
D|------|------------------|------------------|----------4------|
A|------|----0-----2--0----|------------------|----0--------0---|
E|-3--2-|-0----------------|-3--2-----0--2----|-3--------2------|

E|-------------------0--2-|-3--2--0-----0--2-|----------0-------|--------------------|
B|-0----------------------|----------4-------|-0--2--4-----3--1-|-0------------------|
G|----2--0----------------|------------------|------------------|----2--0--------0-0-|
D|----------4--2----------|------------------|------------------|----------4--0----0-|
A|-------2----------------|----0-----2--0----|------------------|----3-----5-------2-|
E|-3-----------0--2--3--2-|-0----------------|-3--2-----0--2----|-3----------------3-|
Related for Bourree In E Minor tab