Song name
# A B C D E F G H I J K L M N O P Q R S T U V W X Y Z

Johann Sebastian Bach - Invention No 8 tab

-------------------------------------------------------------------------------
			     Invention No 8 - Johann Sebastian Bach
-------------------------------------------------------------------------------
Tabbed by: kp
Email:

Great little warm up here is the first section it is all i remember

e|--------------------------------------------------------------------------|
B|----------------------------------------10-13-11-13-10-11-13--------------|
G|---------10-9-7--7------------------10----------------------10-14-12-14-10|
D|---7-10-7------10-10-8-7-8----7-10-7--10----------------------------------|
A|--8-8---------------------10-8--------------------------------------------|
E|--------------------------------------------------------------------------|

e|--------------------------------------------------------------------------|
B|-----------------------------------------9--------------------------------|
G|-14--------------------------------10--11-11-9-8-9-8-9--------------------|
D|----12-15-14-15-12-15-14-15-9--12-9--12---------------11-9-11-9-7-6-11-9-8|
A|-----------------------------10-------------------------------------------|
E|--------------------------------------------------------------------------|

e|--------------------------------------------------------------------------|
B|--------------------------------------------------------------------------|
G|--------------------------------------------------------------------------|
D|-9-8-------------9-8-9---9--9-8-9-----------------------------------------|
A|----11-9-11-9-7-------6-7--6----------------------------------------------|
E|----------------7------------9--------------------------------------------|

Tap to rate this tab
# A B C D E F G H I J K L M N O P Q R S T U V W X Y Z