Guitaretab - guitar tabs
Song name
# A B C D E F G H I J K L M N O P Q R S T U V W X Y Z

Johann Sebastian Bach - Bouree tab

THE BOUREE'
As recorded by Bach
Gtr I (E A D G B E) - 'Untitled'

   4/4
    Gtr I
||--0-2-3--2p0---|-0h2-------0-----------------------------0-2-3--2p0|
||o------------4-|-----0-2h4---3p1-0-----------0---------------------|
||---------------|-------------------2p0---0h2---2-0-----------------|
||---------------|-----------------------4-----------4-2-------------|
||o--------0---2-|-------------2-----0---2-------0-2--------------0--|
||--3-2-0--------|-----3-2---0-----3-----------3-------0-2-3-2-0-----|


|----0h2-------0----------------3---||----|
|-4------0-2h4---3p1-0----------3--o||----|
|----------------------2p0----0-0---||----|
|--------------------------/4---0---||----|
|-2--------------2-----0----5------o||----|
|--------3-2---0-----3----------3---||----|


|-------------|-3---0--------|-5--------0---|-----------------------|
|-0---3---1-0-|---3------3-1-|---5-7--2---3-|-2-0-----0-------------|
|---0---2-----|--------4-----|--------------|-----3-----4-----------|
|-------0-----|--------------|-----0--2-----|-2-0-4-----4--------1--|
|-----2-------|-2---3------0-|-4----------2-|-----------2--1h2h4----|
|-3---------3-|--------4-----|--------------|-------2---------------|


|-7-------0-|-5---3-2--0---|-3---1-0-------|-5--------0---------------|
|---7-9-7---|---5--------3-|---3-------3-1-|---5-7--2---3-2-0-----0-4-|
|-----------|--------------|---------4-----|------------------3-----4-|
|-------0---|-------0------|---------------|-----0--2-----2-0-4-----4-|
|-----7-----|-4--------3---|-2-----3-----0-|-4----------2-----------2-|
|-7---------|--------------|---------4-----|--------------------2-----|

[ Tab from: http://www.guitaretab.com/j/johann-sebastian-bach/136609.html ]
|-0-2-3--2p0---|-0h2-------0-----------------------------0-2-3--2p0--|
|------------4-|-----0-2h4---3p1-0-----------0-----------------------|
|--------------|-------------------2p0---0h2---2-0-------------------|
|--------------|-----------------------4-----------4-2---------------|
|--------0---2-|-------------2-----0---2-------0-2--------------0----|
|-3-2-0--------|-----3-2---0-----3-----------3-------0-2-3-2-0-------|


|----0h2-------0----------------3-|--0-2-3--2p0---|-0h2-------0-------|
|-4------0-2h4---3p1-0----------3-|-------------4-|-----0-2h4---3p1-0-|
|----------------------2p0----0-0-|---------------|-------------------|
|---------------------------4---0-|---------------|-------------------|
|-2--------------2-----0---/5-----|---------0---2-|-------------2-----|
|--------3-2---0-----3----------3-|--3-2-0--------|-----3-2---0-----3-|


|-----------------------0-2-3-|-2p0-----0h2-------0--------|----------|
|-----------0-----------------|------4------0-2h4---3p1--0-|----------|
|-2p0---0h2---2-0-------------|----------------------------|-2p0----0-|
|-----4-----------4-2---------|----------------------------|-----/4---|
|-0---2-------0-2-------------|-0----2--------------2------|-0----5---|
|-----------3-------0-2-3-2-0-|-------------3-2---0------3-|----------|


|-3-|-------------|-3---0-------|-5-------0-----|-------0---|----------|
|-3-|-0---3---1-0-|---3-----3-1-|---5-7-2---4p0-|---------0-|----------|
|---|---0---2-----|-------4-----|---------------|-----------|----------|
|---|-------0-----|-------------|-----0-2-------|-----------|----------|
|---|-----2-------|-2---3-----0-|-4---------2---|-3p2p0-----|----------|
|---|-3---------3-|-------4-----|---------------|-------4---|-4-4-4-3--|


|-----------0---|-------------0---|--^3-------|----------|
|---0---------2-|---------0-----4-|--^5-------|----------|
|-0---0---3-----|-----------0-----|--^4-------|----------|
|---------------|-----5-4---------|-----------|----------|
|---------------|---2-------------|-----------|----------|
|-------2-------|-0---------------|-----------|-----0----|
Related for Bouree tab
Bouree chords by Johann Sebastian Bach