Song name
# A B C D E F G H I J K L M N O P Q R S T U V W X Y Z

Johann Sebastian Bach - Little Fugue In Gm Bwv 578 tab

Help us improve GuitareTab! Take a short survey!
 |       |       |       |        |       |       |       |
|--------------------------------|--------------------------------|
|--------------------------------|--------3-----------------------|
|--------------------------------|0---------------3-----------2---|
|--------------------------------|--------------------------------|
|--------------------------------|--------------------------------|
|--------------------------------|--------------------------------|


 |       |       |       |        |       |       |       |
|--------------------------------|--------------------------------|
|--------------------------------|--------------------------------|
|0---3---2---0-------2-----------|0-------2-------3---2-0-2-------|
|----------------4-------0-------|----0-------0---------------0---|
|--------------------------------|--------------------------------|
|--------------------------------|--------------------------------|


 |       |       |       |        |       |       |       |
|--------------------------------|------------------------------0-|
|----------------------------3-1-|--------------------------1-3---|
|0-----0-2-----2-3---2-0-2-------|3-2-0-3-2-0---2-0---0-2-3-------|
|----0-------0-------------0-----|------------4-----0-------------|
|--------------------------------|--------------------------------|
|--------------------------------|--------------------------------|


 |       |       |       |        |       |       |       |
|1-0---1-0-----0-------------0---|1-3-1-3-3-----1-5-3-5-6-5-3-1-0-|
|----3-----3-2---3-------3-------|--------------------------------|
|--------2-----------2-----------|--------------------------------|
|0---------------3-----------2---|0---3---2---0-------2-----------|
|--------------------------------|----------------4-------0-------|
|--------------------------------|--------------------------------|


 |       |       |       |        |       |       |       |
|1-5-3-5---5-3-5---5-3-5---5-3-5-|1-------3-------5-------3-------|
|--------2-------3-------2-------|--3-2-3---3-2-3---3-2-3---3-2-3-|
|--------------------------------|----------------------------2-0-|
|0-------2-------3---2-0-2-------|0-----0-2-----2-3---2-0-2-------|
|----0-------0---------------0---|----0-------0-------------0-----|
|--------------------------------|--------------------------------|


 |       |       |       |        |       |       |       |
|----1-------0---------------1---|----5---------------3-----------|
|------------------------3-----0-|4---1-3-1---4-1-3-----1-----3---|
|2-------0-----------2-----0-2---|5-3-------3-2---3-2-3---3-2-0-3-|
|3-2-0-3-2-0---2-3---0-2-3-------|--------------------------------|
|------------4---5-0-------------|--------------------------------|
|--------------------------------|--------------------------------|


 |       |       |       |        |       |       |       |
|----------5-3-5---3-2-3---2-0-2-|3-------------------------------|
|1---1-3-1-----------------------|------------------1---1-1-------|
|2-3-0-----------3-------2-------|--------0---2---3---3---------3-|
|--------4---2---5-------0-------|----0---------------------------|
|--------------------------------|1-----------0-------1---0-------|
|----------------3---------------|----------------3-----------3---|


 |       |       |       |        |       |       |       |
|--------------------------------|--------------------------------|
|3-1-3-4-3-1-------3-1-3---3-1-3-|--3-1-3---3-1-3---------1-------|
|------------3-2-3---------------|0---------------3-0---0---0---0-|
|--------0-------0---0---4---0---|0-------4---0-------4-------4---|
|----0-------------------3-------|1---0---3-----------5---0---5-0-|
|2---------------3-------5-------|------3-5-------3-----3---------|


 |       |       |       |        |       |       |       |
|--------------------------------|----------------------------0---|
|3-------1-----------------------|--------------------3---2-------|
|--0---0---0---0-----3-------2---|--------0-2-3-0-2---------------|
|----4-----0-4---0---------------|--0-0-------0-2-3-2-0-3-2-0---2-|
|1---0---0---5-3-1-0---1-3-----0-|1-----0-1-3-----------------4---|
|------3-------------3---5-3-2---|3---3---------------------------|


 |       |       |       |        |       |       |       |
|5-6-5-3-1-0-------------6-------|0-----------5---5---6---5---6---|
|------------3-2-3---------------|--------------------------------|
|------------------0---0-0-------|2-0-2-3-2-0-------2-0-2---2-0-2-|
|0-------0---2---3---3---------3-|------------3-2-3---------------|
|----0---------------------------|------------------------4-------|
|--------------------------------|--------------------------------|


 |       |       |       |        |       |       |       |
|5---6---5---6---5---6---5---6---|5---6---5---6---5-3-5-6-5-3-1-0-|
|--------------------------------|--------------------------------|
|--2-0-2---2-0-2---------0-------|2-------0-----------------------|
|0---------------3-0---0---0---0-|--0---0---0---0-3---2-0---------|
|--------4-----------4-------4---|----4-------4-----------4-------|
|--------------------------------|--------------------------------|


 |       |       |       |        |       |       |       |
|1-----------------------3---1---|------------------------1-------|
|--------3---1-------3-----------|4-------1-----------1-------4---|
|----2-----------3---------------|----0-------3---2---------------|
|0---0-2-0-------------------1-0-|------0-----------1-------1-0---|
|--3-------3-1-0-------0---------|3-1-3---3-1-0-----------------3-|
|----------------3-1-3---3-1-----|--------------3-1---1-3-1-------|


 |       |       |       |        |       |       |       |
|----------3-2-3-----------------|--------------------------------|
|3---------------1-------------1-|--------------------------------|
|--------0-----------------3-2---|3-2-0-3-2-0---2-0-------0---0-2-|
|------0-1---------------4-------|5-------0---4-----0-2-4---0-----|
|1-1-3-------------0-1-3-5-------|----------------1-----------0---|
|--------------------------------|3-------------------------------|


 |       |       |       |        |       |       |       |
|--------------------------------|--------------------------------|
|------1-3---3-1-----------------|--------------------------------|
|3-0-3-----2-----3-----------2---|0---3---2---0-------2-----------|
|------------------0-------0-----|----------------4---0-1-0-------|
|--1-0-------------------------0-|1-3-1-3-3-----1-5-3-------3-1-0-|
|3-----3-2-3-0-2-3---0-2-3---3---|--------------------------------|


 |       |       |       |        |       |       |       |
|--------------------------------|--------------------------------|
|--------------------------------|----------------------------3-1-|
|0-------2-------3---2-0-2-------|0-----0-2-----2-3---2-0-2-------|
|--0-0-0---0-0-0---0---0---0-0-0-|----0-------0---0---------0-----|
|1---3-------3-------3-------3---|1-------3---------------3-----0-|
|--------2-------3-------2-------|--3-2-3---3-2-3---3-2-3---3-2---|


 |       |       |       |        |       |       |       |
|--------------------------------|--------------------------------|
|--------------------1-3-4-------|------1-3---------------1-------|
|3-2-0-3-2-0---2-0-3-------3-2-0-|--2-3-----2-0-----0-2-3---0-----|
|------------4-------------0-----|4-------------3-1-----------3-1-|
|----1---3-1-0-3-1-----------3-1-|0---------3-1-0-----------1-0---|
|3-------------------------------|----------------3-------------3-|


 |       |       |       |        |       |       |       |
|------------------------1-3-1---|--1-----------------------------|
|----------3-1-----1-3-4-------4-|3---4-3-1-----1-----------1---1-|
|----0-2-3-----3-2---------------|----------3-2---3---0-2-3---3---|
|0-3-----------------1---0-------|--------3-------0-3-------------|
|----------------------------3---|1-------------------3---1---3---|
|1-----------0---1---------------|----------------------------5---|


 |       |       |       |        |       |       |       |
|--0---0-0-------1-0-1-3-1-------|--1---1---1---1---1---1---1---1-|
|3---3---------3-----------4-3-1-|3---4-------4-------4-------4---|
|--------------------------------|--------2-------3-------2-------|
|----0-----------------------3---|3---------------0---------------|
|1-------3---1---0---3-----------|1-------3-----------3-1-3-------|
|3---------------1-------1-------|----1-------1---------------1---|


 |       |       |       |        |       |       |       |
|----------------1---------------|--------------------------------|
|3-------4---------------4-----1-|--1-3---4-3-1-4-3-1-3-4-3-1---3-|
|--3-2-3---3-2-3---3-2-3---3-2---|3-----3-------------0-------3---|
|----------------0-----------3-1-|0-----0-------------------------|
|1-----1-3-----3-----3-1-3-------|--3-1---3-1-0-3-1---------------|
|----1-------1-------------1-----|----------------------------3---|


 |       |       |       |        |       |       |       |
|--------------------------------|----1---------------------------|
|1---1-3-1-----1-------1---------|--------------------4-----------|
|--3-------3-2---3-2-3---3-2-0-3-|2-----0-----1---0-----------0---|
|----3---------------3-------2---|3-1-3---3-1-0-3-1-0-1-3-1-0---1-|
|0-----------------------3-------|----------------------------3---|
|------------1---3---------------|--------------------------------|


 |       |       |       |        |       |       |       |
|--------------------------------|--------------------------------|
|----3---------------1-----------|------------1-------------1---1-|
|------------------0---3-2-0-----|------0-2-3---2-3---0-2-3---3---|
|3---0-1-0---3-0-1-----0-----3-1-|0-1-3-----0-1---0-3-----0-1-0-1-|
|5-3-------3-1---3-1-3---3-1-0-3-|1-3-5-1-3-----3---3-1-3---------|
|--------------------------------|--------------------------------|


 |       |       |       |        |       |       |       |
|--0---0-0-------1-0-1-3-1---1---|1---3---1---3---1---3---1---3---|
|3---3---------3-----------------|--------------------------------|
|--0---0-0-------2-0-2-3-2-0-----|--------------------------------|
|3---3---------3-------------3-1-|0-3-1-3---3-1-3---3-1-3---3-1-3-|
|--------------------------------|--------0-------1-------0-------|
|--------------------------------|--------------------------------|


 |       |       |       |        |       |       |       |
|1---3---1---3---1---3---1---3---|1---1-3-------5-6-5-6-8-6-5-3-1-|
|--------------------------------|--4-1---1-----------------------|
|--3-2-3---3-2-3---3-2-3---3-2-3-|3-7---3-2-0-------------3---2---|
|0-------1-------3-------1-------|------------3-1-0---3-----------|
|--------------------------------|--------------------------------|
|--------------------------------|--------------------------------|


 |       |       |       |        |       |       |       |
|------1---------5-3-5-6-5-3-1---|----------------3-1-3-4-3-1-----|
|4-3-4---4-3-1-----------------4-|3-1-3-4-3-1-----------------4-3-|
|0-------------3---------2---0---|------------3-2---------0-------|
|--------------------------------|3---------------------------3---|
|--------3---1---0---3-----------|--------1---0-------1-----------|
|----3---------------------------|----1-----------3---------------|


 |       |       |       |        |       |       |       |
|----------------1---------4-3-1-|------------------------1-3-4-1-|
|1-0-1-3-1-3-4-1-----------------|4-----------------1-3-4---------|
|--------------------------------|------------------------1-------|
|1---1-------------1-0-----------|----------0-1---------------3---|
|----------------------3-2-------|3---0-2-3-----3-----3-----------|
|--------4---3---1-------3-------|--3-------------4---------------|


 |       |       |       |        |       |       |       |
|------------------------3-------|--------------------------------|
|0-1-3-0---------1---------------|4-----------3---1---4---3---1---|
|--------0-----------------------|----------------0-----0-1---0-1-|
|----------3-1-0-1-0---1-0-----0-|------0-1-3-1-3---1-------3-----|
|----0---2-------3---3-----3-2---|3---3---------------3-----------|
|3-------------------------------|--3-----------------------------|


 |       |       |       |        |       |       |       |
|--------------------------------|--------------------------------|
|0---3-----------1-------3-------|4---3-1-3-------1-----1-3-----3-|
|--------0-----------0-------0---|------------0-------0-------0---|
|0-1-0-------0-------------------|--------------------------------|
|------3-2-----------------------|--------------------------------|
|----------------3---------------|--------------------------------|


 |       |       |       |        |       |       |       |
|------------3-1-----------------|--3---3-------------------------|
|4---3-1-3-------4-3-1-4-3-1-0-3-|1---4---1-4-------1---1---------|
|----------0---------0-----------|------------0-3-2---2-----2-----|
|------------------------3-1-0-3-|1-------1---------------3-----1-|
|--------------------------------|------------3-------3---0---3---|
|--------------------------------|----3-----------1-----------1---|


 |       |       |       |        |       |       |       |
|--1---1-------------------------|--------------------------------|
|----3-----3---------------------|--4-1-4---1---------------------|
|--------3-----2-0-3-0-3---0-----|--------2-----0---2---2---------|
|0-------0---3---1-------1---1-0-|----1-------2---4---4---0-4-0---|
|1-----------1-------1-------1---|3-------3---0---5---0-------0-3-|
|----1-------------------3-------|5-----------------------2-------|


 |       |       |       |        |       |       |       |
|--------------------------------|------------------------1-------|
|--------------------------------|--------3-----1---3-1-----1---4-|
|----0-----------0---------------|0-3-2-0---2-----3---0-3---------|
|--------0---4-------0---0---0---|----0-------0---------------3---|
|1-1-0---0-0-5-3-1-1-0-----0---3-|1-------0---------------3-------|
|3-----3---------3-----3-2-------|3-------2-------3-------5-------|


 |       |       |       |        |       |       |       |
|--1-----3-----1-0-3-1-0-5-0---3-|2-------3---5---6-4-3-1-3-1-----|
|3---4-3---3---------------------|--4-3-1---3---3-------------4-3-|
|------------0-------0-------2---|--------3---2---0-------2---3---|
|----3---0---------------2-------|0-------2---4-------------------|
|1-------2-------3-------4-------|--------------------------------|
|--------------------------------|--------------------------------|


 |       |       |       |        |       |       |       |
|--------5---------------3-------|--------2-------3---------------|
|4-------1-------3---------------|1-----------------3-1-----------|
|5-0-------2---2---------3-0---0-|--------2-------3-----3-2-3-0-2-|
|----3-1-----3-----3-1-0-----1---|--1-0-----4-0-4-----0-5-4-5-2-4-|
|----------------1---------------|0-----3-----------1-------------|
|--------------------------------|----------------3---------------|


 |       |       |       |        |       |       |       |
|--------3---5---6-5-3-5-2-3-2-3-|5-3-2-0-------------------------|
|--1-3-1-3-4-3-1-----3---1-------|--------3-1-------3-1-3---3-1-3-|
|3---3-----------3-------2---3---|2-----------3-2-3---------------|
|5-----------4---5-----------0---|0-----------0---0---1---4---1---|
|--------------------------------|------------------------5-------|
|--------------------------------|------------2---3-------8-------|


 |       |       |       |        |       |       |       |
|--------------------------------|--------------------------------|
|--3-1-3---3-1-3---------1-------|3-------1-----------------------|
|0---------------3-0---0---0---0-|--0---0---0---0-3-------2-------|
|0---1---4---1---0---4---0---4---|0---4---0---4---1---1-------0---|
|1-------5-------1---6---0---6---|----6---0---6-------1---3---0---|
|--------8-----------------------|3---------------3---------------|


 |       |       |       |        |       |       |       |
|3-------------------------------|-------------------------------||
|--------------------------------|-------------------------------||
|--------------------------------|-------------------------------||
|0-------------------------------|-------------------------------||
|2-------------------------------|-------------------------------||
|--------------------------------|-------------------------------||
Related for Little Fugue In Gm Bwv 578 tab