Song name
# A B C D E F G H I J K L M N O P Q R S T U V W X Y Z

Johann Sebastian Bach - Jesu Joy Of Mans Desiring tab

This is a beginners version of the song, not the original song.  Its missing a few 
but it is the same tune.  This is the my first tab so don't expect much.

E----------------0-----3-2-3---------------0-------------------------|----|
B--0-----0-3-1-1---3-3-------3-0-----0-1-3---3-1-0---0---------1-0---|----|
G----0-2-------------------------0-2---------------2---0---0-2-----2------|x2
D--------------------------------------------------------4-----------|----|
A--------------------------------------------------------------------|----|
e--------------------------------------------------------------------|----|


E--3----------------------------------------------------------------------|
B----3-0------------------------------------------------------------------|
G--------0----------------------------------------------------------------|
D-------------------------------------------------------------------------|
A-------------------------------------------------------------------------|
e-------------------------------------------------------------------------|
Tap to rate this tab
# A B C D E F G H I J K L M N O P Q R S T U V W X Y Z