Song name
# A B C D E F G H I J K L M N O P Q R S T U V W X Y Z

Johann Sebastian Bach - Bwv 996 Bouree tab

E-|---Song:-Bouree BWV 996-------------------------|
A-|---Author:-Johann Sebastian Bach----------------|
D-|---Transcription-by:Christian Liang-------------|
G-|---E-Mail:christian.liang@gmail.com-------------|   
B-|---http://www.chrisliang.com--------------------|
E-|---Enjoy!---------------------------------------|


Bouree BWV 996 by Johann Sebastian Bach (1685-1750)

Tips at bottom

[1]                     II                                 

E|-------------------0--2-|-3-----2--0--------0--2-|
B|------------------------|-------------4----------|
G|------------------------|------------------------|
D|------------------------|------------------------|
A|------------------------|-------0-----2-----0----|
E|-------------------3--2-|-0----------------------|
   |  |  |  |  |  |  |  |   |  |  |  |  |  |  |  |   
L                    2  1   2     1     4        1   
                        1               1                  

[3]
         II..
E|------------------------|------------------------|
B|-0-----2--4--5-----3--1-|-0----------------------|
G|------------------------|-------2--0--------0--2-|
D|------------------------|-------------4----------|
A|------------------------|-------0-----2-----0----|
E|-3-----2-----0-----2----|-3----------------------|
   |  |  |  |  |  |  |  |   |  |  |  |  |  |  |  |  
L  2     1  3  4     4  1   3     2     4        2
         1           2                  1

[5]                     II                                

E|-------------------0--2-|-3-----2--0--------0--2-|
B|-0----------------------|-------------4----------|
G|----2--0----------------|------------------------|
D|----------4--2----------|------------------------|
A|-------2----------------|-------0-----2-----0----|
E|-3-----------0--2--3--2-|-0----------------------|
   |  |  |  |  |  |  |  |   |  |  |  |  |  |  |  |  
LH 3  2  1  4  2  1  2  1   2     1     4        1  
                        1               1                


[7]
          II..
E|------------------------|------------------------|---||
B|-0-----2--4--5-----3--1-|-0----------------------|---||
G|------------------------|-------2--0-----------0-|-0-||
D|------------------------|-------------4----------|-0-||
A|------------------------|-------3-----5-----5----|-2-||
E|-3-----2-----0-----2----|-3----------------------|-3-||
   |  |  |  |  |  |  |  |   |  |  |  |  |  |  |  |   
L  2     1  3  4     4  1   3     1     1     2      2
   1           2            2     2            3


[10]

E|------------------------|-------------------3----|
B|-------------------0----|-3--------1--0--------3-|
G|----------------------0-|-------2----------------|
D|------------------------|-------0----------------|
A|------------------------|-------------------2----|
E|-------------------3----|-2-----------3----------|
   |  |  |  |  |  |  |  |   |  |  |  |  |  |  |  |  
LH                   3      4     3  1  3     4  3   
                            2                 1                              

[12]

E|-0----------------------|------------------------|
B|-------0--3--1-----0----|----------0--1-----0----|
G|----------------------2-|-1-----2--------------2-|
D|-------------------0----|-2-----------2----------|
A|-3-----------0----------|-------0----------------|
E|-------4----------------|-------------------0----|
   |  |  |  |  |  |  |  |   |  |  |  |  |  |  |  |  
L  1     2  1  1        3   1     3     1        3
                            2           2

[14]                                                                                 

E|------------------------|-------3-----0----------|
B|-------------------3----|-0--------3--------0--3-|
G|-2--------------------2-|------------------------|
D|-------------------0----|------------------------|
A|-0--2--0----------------|-------2-----3----------|
E|----------3--2----------|-3-----------------4----|
   |  |  |  |  |  |  |  |   |  |  |  |  |  |  |  |   
LH 3  2     4  2     4  2   3     4  3  1     2  1   
				  1                       

[16]
                                  II
E|-------5-----2--------0-|------------------------|
B|-1--------5--------2----|-3-----2--0-----------0-|
G|------------------------|-------------3----------|
D|-------------0----------|-------2-----4----------|
A|-0-----4-----------1----|-2----------------------|
E|------------------------|-------------------2----|
   |  |  |  |  |  |  |  |   |  |  |  |  |  |  |  | 
L  1     4  3  4     3      3     1     2     T
          1           1      1     1     3
    
[18]                 VII                                             

E|-------------------7----|-4-----2--0--5-----0--3-|
B|-0--------------------7-|------------------------|
G|------------------------|------------------------|
D|------------------------|-2-----0----------------|
A|-2--1--2--4--6----------|-------------4-----0----|
E|-------------------7----|------------------------|
   |  |  |  |  |  |  |  |   |  |  |  |  |  |  |  |   
LH 2  1  2  4  4     1  1   4     2     3        2    
                     1      1           1 			 

[20]
                     III         II           II
E|-2-----0-----3----------|-------5--0--2----------|
B|----------3--------3--6-|-5-----------------2--5-|
G|------------------------|------------------------|
D|-0----------------------|------------------------|
A|-------3-----2----------|-3-----2-----0----------|
E|-------------------3----|-------------------2----|
   |  |  |  |  |  |  |  |   |  |  |  |  |  |  |  |  
L  1     3  4  4     1  4   3     4     2     1  4
               1     1      1     1           1

[22]

E|-------------------0----|------------------------|
B|-4-----0--------------0-|-1-----3-----0-----1----|
G|------------------------|----------2-----------0-|
D|------------------------|----2--4--------1--2----|
A|-2--------3--2--0-------|-0----------------------|
E|-------------------4----|-------------3----------|
   |  |  |  |  |  |  |  |   |  |  |  |  |  |  |  |  
LH 3        2  1     3      2  3  2  1  3  2  1     
   1                              3           2      

[24]

E|------------------------|------------------------|---||
B|-------0----------------|------------------------|---||
G|-2----------------------|------------------------|---||
D|----------4--5-----4--2-|-1-----2--4--5-4h5p4--2-|-2-||
A|----4--6-----------0----|-2-----0-----2----------|---||
E|-2-----------0----------|------------------------|-0-||
   |  |  |  |  |  |  |  |   |  |  |  |  |  |  |  |  
L  1  3  3  1  4     3  1   1     1  3  4 3h4p3  1   1 
   1			      2           1

Tips


Bouree is a lute suite in Em. Bach wrote many songs for 
various instruments like violin, cello, piano, lute etc... 
The lute is a medieval instrument with tuning similar to 

the guitar therefore Bouree translate well on the guitar. 
Piano translation to guitar is another story. Playing 
"Moonlight Sonata" on the guitar is so much more difficult 

compared to playing on the piano. So my point is if you 
like classical music especially the guitar it will be 
wise to seek out Bach who wrote much for string instrument, 
in particularly the lute. 

Technique
Approach Bouree with jumpy and lively feel. This song is 
more challenging on the left hand. Don't hold chords for 
too long, your left hand should be in constant motion. 

Thumb (p) and index (i) finger plucking mostly on the 
right hand. 

Tips
In this tab, I opt for open strings as much as possible 
rather than barred chords. Fingering is best for me. See 
if it suites you. As always if a certain part of the song 

is troubling you, try other fingering alternatives.


Tap to rate this tab
 
# A B C D E F G H I J K L M N O P Q R S T U V W X Y Z