Song name
# A B C D E F G H I J K L M N O P Q R S T U V W X Y Z

Johann Sebastian Bach - Bwv 995 Sarabande In G Minot tab

E-|---Song:-Sarabande-(BWV995)---------------------|
A-|---Author:-JSBach-------------------------------|
D-|---Transcription-by:Christian Liang-------------|
G-|---E-Mail:christian.liang@gmail.com-------------|
B-|---http://www.chrisliang.com--------------------|
E-|---Enjoy!---------------------------------------|

Sarabande (Lute Suite No 3 in Gm) by Johann Sebastian Bach (1685-1750)

T= thumb
h= hammer on
p= pull off

[1]   Part A

E||--0-----------------------|---5-----------------------|
B||------1-------------------|-------6-------------------|
G||*---------1-h-2-----------|-----------6-h-7-----------|
D||*-------------------------|---------------------------|
A||--------------------------|---------------------------|
E||------------------1-======|===----------------4-======|
     |   |   |   |   |   |   |   |   |   |   |   |   |   |

L        2   1   3   T or 1      2   4   3   4   1

R    a   m   i       p           a   m   i       p

[3]

E|---7-------------------0---|---------------------------|
B|-------6-------------------|---3---1-------------------|
G|-----------6-h-7-----------|-----------1-h-2-----------|
D|---------------------------|---------------------------|
A|---------------------------|-------------------0-=====-|
E|===----------------0-======|===================--------|
 |   |   |   |   |   |   |   |   |   |   |   |   |   |   |
R    4   2   1   3               4   1   2   3

L    a   m   i       p   a       m   i   m       p


[5]      V...................   * VII...................
                                              X....

E|-------------------6---5---|---------------------------|
B|-----------6---5-----------|-----------8-------10--8---|
G|-------5-------------------|-------7-------10----------|
D|---------------------------|---------------------------|
A|==-0-=====================-|---------------------------|
E|---------------------------|---7-======================|
 |   |   |   |   |   |   |   |   |   |   |   |   |   |   |


L         1   2   1   2   1       1   1   2   4   4   2

R     p   i   m   i   m   i       p   i   m   i   m   i

[7]

E|---1---0-------------------|--------------------------||
B|-----------0---1-------0---|---1-===================--||
G|-------------------0-=====-|-------------------------*||
D|---------------------------|-------------------------*||
A|---3-----------------------|---3-===================--||
E|==---------1-------3-======|===-----------------------||
 |   |   |   |   |   |   |   |   |   |   |   |   |   |   |
R    1       1   2   4           1
     3                           3
L    m   a   i   m   i   m       a
     p       p       p           p

[9]   Part B


E|---3---0-------------------|---3---0-------------------|
B|-----------0-h-1-----------|-----------2-h-3-----------|
G|*--------------------------|---------------------------|
D|*--------------------------|---------------------------|
A|-------------------1-======|===================--------|
E|---------------------------|-------------------0-======|
 |   |   |   |   |   |   |   |   |   |   |   |   |   |   |

L     4           2   1           4       3   4
R     m   i   m       p           m   i   m       p

[11]

E|---6-------------------5---|---------------------------|
B|-------8-------------------|---8---6-------------------|
G|-----------6-h-7-----------|-----------6-h-7-----------|
D|---------------------------|-------------------0-======|
A|-------------------0-======|=================----------|
E|=================----------|---------------------------|
 |   |   |   |   |   |   |   |   |   |   |   |   |   |   |
R    2   4   1   3       1       4   2   1   3

L    a   m   i       p   a       m   i   m       p

[13]


E|-------------------3---2---|------------0------5-h-4---|
B|-----------3---1-----------|-------0-------3-----------|
G|-------2-------------------|---------------------------|
D|==-------------------------|---------------------------|
A|---3-======================|===2-======================|
E|---------------------------|---------------------------|
 |   |   |   |   |   |   |   |   |   |   |   |   |   |   |

L     3   2   4   1   4   2       1           2   4   3

R     p   i   m   i   m   i       p   i   m   i   m

[15]

E|---5-----------0-----------|-----------0-------5-h-4---|
B|-------6---4---------------|-------0-------4-----------|
G|-------------------1-h-2---|---------------------------|
D|---------------------------|---------------------------|
A|===3-----------------------|---------------------------|
E|-----------1-==============|===-0-=====================|
 |   |   |   |   |   |   |   |   |   |   |   |   |   |   |
R    3   4   4       2   3                   2   3   2
     1       1
L    m   i   m   a   i           p   i   m   i   m
     p       p

[17]

E|---8-------------------8---|---7-------------------0---|
B|-------10------------------|-------6-------------------|
G|-----------8-h-9-----------|-----------6-h-7-----------|
D|---------------------------|-------------------6-=====-|
A|-------------------9-======|---------------------------|
E|---------------------------|---------------------------|
 |   |   |   |   |   |   |   |   |   |   |   |   |   |   |
L     2   4   2   3   2   1       4   2   1   3   1
      keep the 2 moving           keep the 1 moving

R     a   m   i       p   a       a   m   i       p   a

[19]

E|-----------------------4---|-------------------5------||
B|---3---1-------------------|-----------3---1----------||
G|---2-------1-h-2-----------|-------------------------*||
D|-----------0-------2-=====-|-------2-----------------*||
A|---0-----------------------|---0-====================-||
E|-------------------0-=====-|--------------------------||
 |   |   |   |   |   |   |   |   |   |   |   |   |   |   |
R    4   1   1   2   1   4           2   4   1   4
     2
L    m   m   i       i   a       p   i   m   i   a
     i       m       p
     p

/////////////////////////////////////////////////////////////////////////
Grade 3


Technique
AABB. 20 bars totals. Play Sarabade (BWV995) Slow.
Bar [6] has a full barre chord plus Pinky hinge Barre. Use your pinky and
flatten the tip joint of your pinky finger to barre.
Bar[17] and [18] Hardest measures fo me, keep the finger moving during
these measures.
On slow songs that are sparse in texture, bass notes must be held as long
as possible. Every measure has at least one bass note suspended.
So suspend them notes! Sarabande is left hand dominant so pay careful
attention to the finger.

Tips
This song is rather dark and mysterious and unlike bach's signature sound.
Bwv is accepted as his arrangement and bot the work of a copyist.
Bwv995 is a fairly simple song once you have learnt the finger positions.
This song is quite dissonant (borderline in tune). Take care not to hit the
wrong note because it will really sound bad-no pressure. : )

Bar[6] Double Bar and Alternatve
--------------------------------

[5]  VII...................
                  X....
E|-------------------------------|
B|-----------8-------10--8-------|
G|-------7-------10--------------|
D|-------------------------------|
A|-------------------------------|
E|---7-=========================-|
     |   |   |   |   |   |   |
LH   1   1   2   4   4   2


You will notice there's a Double Bar. It's no mistake. Here it shows
pinky hinge barre chord. use your pinky and flatten the tip joint of
your pinky finger. If this is too hard for you try the alternative Bar
below. Although I must warn you The suspended bass in this version can't
be sustained as long!


Bar [6] Alternative

E|-----------3---1---5---3-------|
B|-------3-----------------------|
G|-------------------------------|
D|-------------------------------|
A|---2-==================--------|
E|-------------------------------|
     |   |   |   |   |   |   |
LH   2   3   4   1   4   1

Notice the shorter suspend bass duration
Tap to rate this tab
 
# A B C D E F G H I J K L M N O P Q R S T U V W X Y Z