Johann Sebastian Bach - Bwv 119 Polonaise tab

E-|---Song:-BWV119-Polonaise-----------------------|
A-|---Composer:-Johann-Sebastian-Bach--------------|
D-|---Transcription-by:Christian Liang-------------|
G-|---E-Mail:christian.liang@gmail.com-------------|   
B-|---http://www.chrisliang.com--------------------|
E-|---Enjoy!---------------------------------------|

==========================================================================
               BWV 119 Polonaise by Johann Sebastian Bach
==========================================================================

Key Signature: A minor (Originally in G)
Time Signature: 3/4

[1]
E||--------------------------|---------------------------|
B||-------0-1-------3--------|--0---0-1-3----------------|
G||*2=====--2-------2--------|----------1-------1--------|
D||*-------------------------|--------------4-------2----|
A||-0------------------------|--0------------------------|
E||--------------------------|---------------------------|
 |  | | | | | | | | | | | |  |  | | | | | | | | | | | |  | 
L   3       1       4                 1 3   4   1   2
            3       3                   1       

[3]
E|----------0---5-------5----|--------------------------||
B|--1---1-3---------3--------|--1---0-1-----------------||
G|---------------------------|----------2--------------*||
D|------------------0--------|--2-------------------2--*||
A|--0-------0----------------|--------------0---3-------||
E|---------------------------|--------------------------||
 |  | | | | | | | | | | | |  |  | | | | | | | | | | | |  | 
L   1   1 4     4   1   4       1     1 3       4   2
                                2

[5]
E||---------0-------3--------|--0------------------------|
B||-1====-3------------------|------3-1-0-1-3-0----------|
G||*-------------------------|------------------0--------|
D||*-------------------------|----------------------3----|
A||-0====-2-3-------2--------|--3------------------------|
E||--------------------------|----------3----------------|
 |  | | | | | | | | | | | |  |  | | | | | | | | | | | |  | 
L   1     4 3       4           3   4 1 3 1 4       4
          2         2

[7]                 III......
E|--3---0-------3---5-3------|--------------1---3-1-0----|
B|----------1-----------6-5--|--6---3---0-------------3--|
G|----------2----------------|----------0----------------|
D|--2---------------3--------|--0---------------2--------|
A|---------------------------|---------------------------|
E|---------------------------|---------------------------|
 |  | | | | | | | | | | | |  |  | | | | | | | | | | | |  | 
L   4       1   4   3   4 3     3   1       1   4 1   4
    2       3       1                           2

[9]
E|--0-----0-1---0------------|---------------------------|
B|------3-----------3---1----|--0-1-3-0-1----------------|
G|----------2----------------|--0------------------------|
D|------------------3--------|------3---2---3---2---0----|
A|--3------------------------|---------------------------|
E|---------------------------|---------------------------|
 |  | | | | | | | | | | | |  |  | | | | | | | | | | | |  | 
L   3   4   1       4   1         1 4   1   3   2
            2       3               3   2

[11]
E|--0-------1----------------|---------------------------|
B|---------------------------|----------0-----------0----|
G|------------------2--------|--1---1-2---------1--------|
D|----------0----------------|--------------2---0--------|
A|--3------------------------|---------------------------|
E|------------------1--------|--0===============---------|
 |  | | | | | | | | | | | |  |  | | | | | | | | | | | |  | 
L   3       1       2           1   1 3     2   1
                    1


[13]
E|--0-------1----------------|---------------------------|
B|---------------------------|----------0-----------0----|
G|------------------2--------|--1---1-2---------1--------|
D|----------0----------------|--------------2---0--------|
A|--3------------------------|---------------------------|
E|------------------1--------|--0===============---------|
 |  | | | | | | | | | | | |  |  | | | | | | | | | | | |  | 
L   3       1       2           1   1 3     2   1
                    1


[15]
E|--0---0-1-0---0-1-0---5----|--------------------------||
B|---------------------------|--1---0-1-----------------||
G|---------------------------|----------2=============-*||
D|---------------------------|--2----------------------*||
A|--3-------0-------3--------|------------------0-------||
E|---------------------------|--------------------------||
 |  | | | | | | | | | | | |  |  | | | | | | | | | | | |  | 
L   3     1       1 2   4       1     1 3
                                2
Tap to rate this tab
 
# A B C D E F G H I J K L M N O P Q R S T U V W X Y Z