Song name
# A B C D E F G H I J K L M N O P Q R S T U V W X Y Z

Johann Sebastian Bach - Bwv 847 - Fugue No 2 In Cm tab

#----------------------------------PLEASE NOTE--------------------------------#
#This file is the author's own work and represents their interpretation of the#
#song. You may only use this file for private study, scholarship, or research.#
#-----------------------------------------------------------------------------#

Date: Wed, 10 Nov 1993 21:08:29 -0700 (MST)
From: Paul Zimmerman 
Subject: TAB: Fugue in Cminor - Bach
To: jamesb@animal-farm.nevada.edu

The Well Tempered Clavier Part I - Fugue No 2 in Cm BWV847 - JS Bach

************************************************************
1st measure - notes 7,8,9 moved from 2nd to 3rd string
2nd measure - notes 6,7,8 moved from 1st to 2nd string
thanx to Jim Williams for help with corrections
corrected by Weed 11 Jul 98 & 25 Jun 01 - weed@wussu.com
************************************************************

|-----------------------------|-----------------------------------|
|-1-0-1-----------1-0-1---3---|-----1-0-1---3---------------------|
|---------0---1---------------|-0-----------------0-1-------0-----|
|-----------------------------|-----------------3-------------3---|
|-----------------------------|-----------------------------------|
|-----------------------------|-----------------------------------|
  |=| |___|   |___|=| |___|     |___|=| |___|   |=| |       |=|


|-----3-2-3-----------3-2-3---5---|-----3-2-3---5-------------------|
|---1-0-------1---4---4---3-------|-3-----------------3-4-------3---|
|-------2-0-------------------5---|-3---2---3---5---5---0---2-----5-|
|-1---------3-1-0-----------------|-----------------4-----------4---|
|-----------------3---------------|---------------------------------|
|---------------------------------|---------------------------------|
  |=|=|=| |=|=|=| |___|=| |___|     |___|=| |___|   |=| |___|   |=|


|---------------------------------|-3-1-3---------------------------|
|-----4-3-4-----------6-4-6-------|---------0---1---3---4---6-------|
|-3-----------0---1-----------1-3-|-3---------0-1---------------5-4-|
|-5-----------0-1-3---6-----0-3-5-|-------1-3-------3---1---0-------|
|-----------3---------------------|---------------------------------|
|---------------------------------|---------------------------------|
  |___|=| |=|=|=| |___|=| |=|=|=|   |=|=|=| |=| |___|___|___|   |=|


|---------------------4---3---1---|--------------------------------||
|-----4-3-1-----------6---4---3---|-4---3---4---6---0---1---3------||
|-5---------2-1-0-----------------|-----1---0-------0-----------0--||
|-----------------3---------------|-------------3-------3-1-3---1--||
|---------------------------------|--------------------------------||
|---------------------------------|--------------------------------||
  |___|=| |=|=|=| |___|___|___|     |___|___|___|   |=| |___|


Peace,                                                  
Paul Z                                                  
                                                        
~~~~~~~                                                              ~~~~~~~
~~~~~~~    "How old will you have to be before you stop believing    ~~~~~~~
~~~~~~~        that those eyes will look down on you forever"        ~~~~~~~
~~~~~~~                                                              ~~~~~~~
~~~~~~~                                     -Grace Slick             ~~~~~~~
~~~~~~~                                                              ~~~~~~~
Tap to rate this tab
# A B C D E F G H I J K L M N O P Q R S T U V W X Y Z