Song name
# A B C D E F G H I J K L M N O P Q R S T U V W X Y Z

Johann Sebastian Bach - Minuet In G tab

-----------------------------------------------------------------------------
			     MINUET IN G - J.S. BACH
-----------------------------------------------------------------------------
Tabbed by: Timmehhh

Tuning: Standard

e|-------------|-------------|-------------|-------------|
B|-0-----------|-0-----------|-1-----0-1---|-0-----------|
G|-----0---0-2-|-----0---0---|-----2-----2-|-----0---0---|
D|-------4-----|-------------|-------------|-------------|
A|-------------|-------------|-------------|-------------|
E|-------------|-------------|-------------|-------------|

e|-------------|-------------|-------------|-------------|
B|-----0-------|-------------|-------------|-------------|
G|-2-----2-0---|-0---2-0-----|-------------|-------------|
D|-----------4-|---------4-2-|-0-------0---|-0-----------|
A|-------------|-------------|-------------|-------------|
E|-------------|-------------|-------------|-------------|

e|-------------|-------------|-------------|-------------|
B|-0-----------|-0-----------|-1-----0-1---|-0-----------|
G|-----0---0-2-|-----0---0---|-----2-----2-|-----0---0---|
D|-------4-----|-------------|-------------|-------------|
A|-------------|-------------|-------------|-------------|
E|-------------|-------------|-------------|-------------|

e|-------------|-------------|-------------|-------------|
B|-----0-------|-------------|-------------|-------------|
G|-2-----2-0---|-0---2-0-----|-------------|-------------|
D|-----------4-|---------4-2-|-0-------0---|-------------|
A|-------------|-------------|-------------|-------------|
E|-------------|-------------|-------------|-3-----------|

e||-------------|-------------|-------------|------------|
B||-------------|-------------|-0-------0---|------------|
G||-0-------0---|---------2---|-----0-2---0-|-2----------|
D||-------------|-0-----------|-------------|------------|
A||-------------|-------------|-------------|------------|
E||-------------|-------------|-------------|------------|

e|-------------|-0-----------|-------------|-------------|
B|---0---0-2-3-|-----3---2---|-3-----------|-------------|
G|-2---2-------|-------------|-----2---0---|-------------|
D|-------------|-------------|-------------|-4-----------|
A|-------------|-------------|-------------|-------------|
E|-------------|-------------|-------------|-------------|

e|-------------|-------------|-------------|-------------|
B|-0-------0---|-1-------1---|-0-----------|-------------|
G|-----0-------|-----0-------|-----2---0---|-------------|
D|-------------|-------------|-------------|-4-2-0-2-4---|
A|-------------|-------------|-------------|-------------|
E|-------------|-------------|-------------|-------------|

e|-------------|-------------|-------------|------------||
B|-------------|-------------|-------------|------------||
G|-----------0-|-2---0-------|-0-----------|------------||
D|-0-2-0-2-4---|---------4---|---------0---|------------||
A|-------------|-------------|-----2-------|------------||
E|-------------|-------------|-------------|-3----------||


************************************

Your welcome!  

************************************
Tap to rate this tab
# A B C D E F G H I J K L M N O P Q R S T U V W X Y Z