Song name
# A B C D E F G H I J K L M N O P Q R S T U V W X Y Z

Johann Sebastian Bach - Minuet In G tab

Johann Sebastian Bach
"Minuet in G"
----------------------------
Standard Tuning
----------------------------
  
e|--------------------|--------------------|-0----------0--2----|
B|--3---------0--1----|-3------------------|-1----1--3----------|
G|o-0----0--2---------|-0-----0-----0------|-0------------------|
D|o-0-----------------|-0------------------|-2------------------|
A|--2-----------------|-2------------------|-3------------------|
E|--3-----------------|--------------------|--------------------|
                                                   
e|-3------------------|--------------------|--------------------|
B|-0------------------|-1----3--1--0-------|-0----1--0----------|
G|-0-----0-----0------|-2-------------2----|-0----------2--0----|
D|-0------------------|-2------------------|-0------------------|
A|-2------------------|-0------------------|--------------------|
E|--------------------|--------------------|--------------------|
  
e|--------------------|--------------------|--------------------|
B|------------0-------|--------------------|-3----------0--1----|
G|------0--2-----0----|-2------------------|-0----0--2----------|
D|-4------------------|-0----0-------------|-0------------------|
A|--------------------|---------3--2--0----|-2------------------|
E|--------------------|--------------------|-3------------------|

e|--------------------|-0----------0--2----|-3------------------|
B|-3------------------|-1----1--3----------|-0------------------|
G|-0-----0-----0------|-0------------------|-0-----0-----0------|
D|-0------------------|-2------------------|-0------------------|
A|-2------------------|-3------------------|-2------------------|
E|--------------------|--------------------|--------------------|
 
e|--------------------|--------------------|--------------------|
B|-1----3--1--0-------|-0----1--0----------|------0-------------|
G|-2-------------2----|-0----------2--0----|-2-------2--0-------|
D|-4------------------|--------------------|-4----------0--4----|
A|--------------------|--------------------|--------------------|
E|--------------------|--------------------|--------------------|
   
e|--------------------|--7----------7------|-5------------------|
B|--------------------|--8----8--10-----8--|-7-------5--7-------|
G|-0-----------------o|o-------------------|------7--------7----|
D|-------0-----------o|o-------------------|--------------------|
A|--------------------|--------------------|--------------------|
E|-------------3------|--------------------|--------------------|

e|-3----0--2--3-------|--------------------|-------------0--2---|
B|-5-------------3----|-2----0----2--------|----0--2--3---------|
G|--------------------|-2--------------2---|-2------------------|
D|--------------------|--------------------|--------------------|
A|--------------------|--------------------|--------------------|
E|--------------------|--------------------|--------------------|

e|-3------2------0----|-2------------------|--------------------|
B|-0------3------2----|-3-------------2----|-3------------------|
G|--------------------|--------2------0----|-2------------------|
D|--------------------|--------4-----------|-4------0-----------|
A|--------------------|--------------------|---------------3----|
E|--------------------|--------------------|--------------------|

e|--------------------|-0------------------|--------------------|
B|-3------------------|-1------------------|-3------1------0----|
G|-0-----0-------0----|-0-----0-------0----|-4------2------0----|
D|-0---------4--------|-2---------4--------|--------------------|
A|-2------------------|-3------------------|--------------------|
E|--------------------|--------------------|--------------------|

e|--------------------|--------------------|--------------------|
B|--------------------|----------------0---|-1------0-----------|
G|-2----0-----0--2----|----------0--2------|-0------0------2----|
D|-0-------4----------|-0--2--4------------|-2-------------4----|
A|--------------------|--------------------|--------------------|
E|--------------------|--------------------|--------------------|

e|--------------------|--------------------|--------------------|
B|-0----h3------------|--------------------|--------------------|
G|-0---------0--------|-0-----------------o|--------------------|
D|-----------0---4----|-0------0----------o|--------------------|
A|-----------2---5----|-2------------------|--------------------|
E|--------------------|-3-------------3----|--------------------|

tablature notes
---------------
h - hammer on
o repeat o
---------------
Taken from Bach sheet music book (arranged by Leon Block) and
converted to tablature.
Tap to rate this tab
# A B C D E F G H I J K L M N O P Q R S T U V W X Y Z