Song name
# A B C D E F G H I J K L M N O P Q R S T U V W X Y Z

Johann Sebastian Bach - Terracata tab

-------------------------------------------------------------------------------
			     Terracata - Bach
-------------------------------------------------------------------------------
Tabbed by:Insight
Email:vindictive0@hotmail.com

Tuning:standard

Fingerings listed above the notes, this song can be played without using the pull-offs.


    1   3   4   1    1   2    4   1    1    3    4   1     1    3    4    1
e|-5p0-7p0-8p0-5p0--7p0-8p0-10p0-7p0--8p0-10p0-12p0-8p0--10p0-12p0-13p0-10p0-|
B|---------------------------------------------------------------------------|
G|---------------------------------------------------------------------------|
D|---------------------------------------------------------------------------|
A|---------------------------------------------------------------------------|
E|---------------------------------------------------------------------------|
    4    1    4   1    2   1   4   1
e|-12p0-8p0-10p0-7p0--8p0-5p0-7p0-4p0----------------------------------------|
B|---------------------------------------------------------------------------|
G|---------------------------------------------------------------------------|
D|---------------------------------------------------------------------------|
A|---------------------------------------------------------------------------|
E|---------------------------------------------------------------------------|
   11 2  3  1 1
e|-5-------------------------------------------------------------------------|
B|--5-6-----5-5--------------------------------------------------------------|
G|-------7-------------------------------------------------------------------|
D|---------------------------------------------------------------------------|
A|---------------------------------------------------------------------------|
E|---------------------------------------------------------------------------|
| p  pull-off

===============================================================================
Tap to rate this tab
# A B C D E F G H I J K L M N O P Q R S T U V W X Y Z