Song name
# A B C D E F G H I J K L M N O P Q R S T U V W X Y Z

Johann Sebastian Bach - Minuet In D Minor tab

e||---1-0-----|-------|-------------|---------|------------|
B||.------3-2-|-3-----|-------------|---------|-------3-1--|
G||-2---------|---2-3-|-----0-3-2-0-|---------|---3-2------|
D||-----------|-------|---2---------|-3-2-3-0-|-3----------|
A||.----------|-------|-4-----------|---------|------------|
E||-----------|-------|-------------|---------|------------|

e -1-0-------|--------|-------||
B -----3-1---|---1----|------.||
G ---------3-|2-3-----|-------|| 
D -----------|-----3-2|-3-----|| x2
A -----------|--------|------.||
E -----------|--------|-------||

e||-5----5-3-1-|-0-1-3---|-1---1-0-------0--|
B||.-----------|-------1-|---------3-2-3----|
G||------------|---------|----------------2-|
D||---3--------|---------|---0--------------|
A||.-----------|---------|------------------|
E||------------|---------|------------------|

e ---------0-1-|3-0---6-5-3-|1-0---0-------||
B ---0-2-3-----|----2-------|----3---2-3--.||
G -2-----------|------------|--------------||
D -------------|------------|--------------|| x2
A -------------|------------|-------------.||
E -------------|------------|--------------||

This is my first tab so if theres any problems E-mail me or ask me on MSN at Deek_13@msn.com
Thanks - Deek
Tap to rate this tab
# A B C D E F G H I J K L M N O P Q R S T U V W X Y Z