Song name
# A B C D E F G H I J K L M N O P Q R S T U V W X Y Z

Johann Strauss - The Blue Danube tab

The Blue Danube Waltz - Johann Strauss (the younger) (1825-1899)

Tabbed by The_S (March 2003) - hermanss@iprimus.com.au

The_S: This is a piece whos name i hadn't found for quite sometime.
       It was used on the Simpsons when Homer eats the chips in space.
       And it has been used many a time in movies where actors are
       dancing a waltz I have yet to record myself playing each guitar
       and combine the two recordings to hear what this tab sounds like.
       Never-the-less, enjoy this wonderful piece.

 3/4


   Guitar 1
   |       |       |       |       |       |
||-----------------------------------------5------|
||------------------------------------------------|
||-----------------2-------2=======------2--------|
||---------4--------------------------------------|
||-5----------------------------------------------|
||------------------------------------------------|
|| Guitar 2
||---------------------------------2-------2------|
||---------------------------------3-------3------|
||---------------------------------2-------2------|
||------------------------------------------------|
||------------------------------------------------|
||------------------------------------------------|

   |       |       |       |       |       |
||-5---------------2-------2----------------------|
||------------------------------------------------|
||---------------2--------------------------------|
||------------------------------------------------|
||-----------------------------------------5------|
||------------------------------------------------|
||
||---------2-------2---------------2-------2------|
||---------3-------3---------------3-------3------|
||---------2-------2---------------2-------2------|
||------------------------------------------------|
||------------------------------------------------|
||------------------------------------------------|

   |       |       |       |       |       |
||-----------------------------------------5------|
||------------------------------------------------|
||-----------------2-------2=======------2--------|
||---------4---------------5----------------------|
||-5----------------------------------------------|
||------------------------------------------------|
||
||---------2-------2---------------3-------3------|
||---------3-------3---------------2-------2------|
||---------2-------2---------------2-------2------|
||------------------------------------------------|
||------------------------------------------------|
||------------------------------------------------|

   |       |       |       |       |       |
||-5---------------3-------3----------------------|
||------------------------------------------------|
||---------------2--------------------------------|
||------------------------------------------------|
||-----------------------------------------4------|
||------------------------------------------------|
||
||---------3-------3---------------3-------3------|
||---------2-------2---------------2-------2------|
||---------2-------2---------------2-------2------|
||------------------------------------------------|
||------------------------------------------------|
||------------------------------------------------|

   |       |       |       |       |       |
||-----------------------------------------7------|
||-----------------0-------0=======---------------|
||---------------------------------------6--------|
||---------2--------------------------------------|
||-4----------------------------------------------|
||------------------------------------------------|
||
||---------3-------3---------------3-------3------|
||---------2-------2---------------2-------2------|
||---------2-------2---------------2-------2------|
||------------------------------------------------|
||------------------------------------------------|
||------------------------------------------------|

   |       |       |       |       |       |
||-7---------------3-------3----------------------|
||---------------2--------------------------------|
||------------------------------------------------|
||------------------------------------------------|
||-----------------------------------------4------|
||------------------------------------------------|
||
||---------3-------3---------------3-------3------|
||---------2-------2---------------2-------2------|
||---------2-------2---------------2-------2------|
||------------------------------------------------|
||------------------------------------------------|
||------------------------------------------------|

   |       |       |       |       |       |
||-----------------------------------------7------|
||-----------------0-------0=======---------------|
||---------------------------------------7--------|
||---------2--------------------------------------|
||-4----------------------------------------------|
||------------------------------------------------|
||
||---------3-------3---------------2-------2------|
||---------2-------2---------------3-------3------|
||---------2-------2---------------2-------2------|
||------------------------------------------------|
||------------------------------------------------|
||------------------------------------------------|

   |       |       |       |       |       |
||-7----------------------------------------------|
||-----------------7-------7----------------------|
||---------------7--------------------------------|
||------------------------------------------------|
||-----------------------------------------5------|
||------------------------------------------------|
||
||---------2-------2---------------2-------2------|
||---------3-------3---------------3-------3------|
||---------2-------2---------------2-------2------|
||------------------------------------------------|
||------------------------------------------------|
||------------------------------------------------|

   |       |       |       |       |       |
||-----------------------------------------10-----|
||------------------------------------------------|
||-----------------2---/---7=======------7--------|
||---------4--------------------------------------|
||-5----------------------------------------------|
||------------------------------------------------|
||
||---------2-------2---------------2-------2------|
||---------3-------3---------------3-------3------|
||---------2-------2---------------2-------2------|
||------------------------------------------------|
||------------------------------------------------|
||------------------------------------------------|

   |       |       |       |       |       |
||-10--------------5-------5----------------------|
||---------------3--------------------------------|
||------------------------------------------------|
||------------------------------------------------|
||-----------------------------------------5------|
||------------------------------------------------|
||
||---------2-------2---------------2-------2------|
||---------3-------3---------------3-------3------|
||---------2-------2---------------2-------2------|
||------------------------------------------------|
||------------------------------------------------|
||------------------------------------------------|

   |       |       |       |       |       |
||-----------------------------------------10-----|
||------------------------------------------------|
||-----------------2---/---7=======------7--------|
||---------4--------------------------------------|
||-5----------------------------------------------|
||------------------------------------------------|
||
||---------2-------2---------------0-------0------|
||---------3-------3---------------3-------3------|
||---------2-------2---------------4-------4------|
||------------------------------------------------|
||------------------------------------------------|
||------------------------------------------------|

   |       |       |       |       |       |
||-10--------------7-------7----------------------|
||------------------------------------------------|
||---------------7-------------------------9------|
||------------------------------------------------|
||------------------------------------------------|
||------------------------------------------------|
||
||---------0-------0-------0===========----0------|
||---------3-------3-------3===========-----------|
||---------4-------4-------4===========-----------|
||-----------------------------------------2------|
||------------------------------------------------|
||------------------------------------------------|

   |       |       |       |       |       |
||-----------------7-------7====================---|
||---------8---------------------------------------|
||-9-----------------------------------------------|
||-------------------------------------------------|
||-------------------------------------------------|
||-------------------------------------------------|
||
||-0-------3-------7---------------3-------3------|
||---------------------------------2-------2------|
||---------0-------4---------------2-------2------|
||-2----------------------------------------------|
||------------------------------------------------|
||------------------------------------------------|

   |       |       |       |       |       |
||=------------------------14===================---|
||---------9-------10------------------------------|
||-------------------------------------------------|
||-------------------------------------------------|
||-------------------------------------------------|
||-------------------------------------------------|
||
||---------3-------3---------------2-------2------|
||---------2-------2---------------3-------3------|
||---------2-------2---------------2-------2------|
||------------------------------------------------|
||------------------------------------------------|
||------------------------------------------------|

   |       |       |       |       |       |
||---------10-------------------------------------|
||-----------------7-------7===========-----------|
||-----------------------------------------9------|
||------------------------------------------------|
||------------------------------------------------|
||------------------------------------------------|
||
||---------2-------2-------0===========-----------|
||---------3-------3-------3===========-----------|
||---------2-------2-------4===========-----------|
||------------------------------------------------|
||------------------------------------------------|
||------------------------------------------------|

   |       |       |       |       |       |
||-7===========-----------------------------------|
||-----------------10-----------------------------|
||-------------------------7-----------7---7------|
||------------------------------------------------|
||------------------------------------------------|
||------------------------------------------------|
||
||-3===========------------2-----------2---2------|
||-2===========------------3-----------3---3------|
||-2===========------------2-----------2---2------|
||------------------------------------------------|
||------------------------------------------------|
||------------------------------------------------|

   |       |       |       |       |       |
||---------10------9-------9-------7-------7------|
||------------------------------------------------|
||------------------------------------------------|
||------------------------------------------------|
||------------------------------------------------|
||------------------------------------------------|
||
||------------------------------------------------|
||---------------------------------3-------3------|
||---------------------------------1-------1------|
||------------------------------------------------|
||------------------------------------------------|
||------------------------------------------------|

   |       |       |       |       |       |
||---------7-------6-------6-------7-------7------|
||------------------------------------------------|
||------------------------------------------------|
||------------------------------------------------|
||------------------------------------------------|
||------------------------------------------------|
||
||------------------------------------------------|
||---------3-------2---------------3-------3------|
||---------1-----------------------1-------1------|
||------------------------------------------------|
||------------------------------------------------|
||------------------------------------------------|

   |       |       |       |       |       |
||---------0-------0-------2===========----0------|
||------------------------------------------------|
||------------------------------------------------|
||------------------------------------------------|
||------------------------------------------------|
||------------------------------------------------|
||
||------------------------------------------------|
||---------3-------3------------------------------|
||---------1-------1---------------2-------2------|
||------------------------------------------------|
||------------------------------------------------|
||------------------------------------------------|

   |       |       |       |       |       |
||---------0-------0-------7===========----5------|
||------------------------------------------------|
||------------------------------------------------|
||------------------------------------------------|
||------------------------------------------------|
||------------------------------------------------|
||
||------------------------------------------------|
||------------------------------------------------|
||---------2-------2---------------2-------2------|
||------------------------------------------------|
||------------------------------------------------|
||------------------------------------------------|

   |       |       |       |       |       |
||---------10------9-------9-------7-------7------|
||------------------------------------------------|
||------------------------------------------------|
||------------------------------------------------|
||------------------------------------------------|
||------------------------------------------------|
||
||------------------------------------------------|
||---------3-------2---------------3-------3------|
||---------------------------------1-------1------|
||------------------------------------------------|
||------------------------------------------------|
||------------------------------------------------|

   |       |       |       |       |       |
||---------7-------9-------12------10------10-----|
||------------------------------------------------|
||------------------------------------------------|
||------------------------------------------------|
||------------------------------------------------|
||------------------------------------------------|
||
||------------------------------------------------|
||---------3-----------------------3-------3------|
||---------1-------3---------------1-------1------|
||------------------------------------------------|
||------------------------------------------------|
||------------------------------------------------|

   |       |       |       |       |       |
||---------4-------7-------7===========----5------|
||------------------------------------------------|
||------------------------------------------------|
||------------------------------------------------|
||------------------------------------------------|
||------------------------------------------------|
||
||------------------------------------------------|
||---------3-------3-------0===========-----------|
||---------1-------1-----------------------2------|
||------------------------------------------------|
||------------------------------------------------|
||------------------------------------------------|

   |       |       |       |       |       |
||-4========---2-----------2---2---2-------0------|
||-----------------3------------------------------|
||---------------------4--------------------------|
||------------------------------------------------|
||------------------------------------------------|
||------------------------------------------------|
||
||------------------------------------------------|
||---------------------------------3-------3------|
||---------------------------------4-------4------|
||-4===================---------------------------|
||------------------------------------------------|
||------------------------------------------------|

   |       |       |       |       |       |
||---------10------9-------9-------7-------7------|
||------------------------------------------------|
||------------------------------------------------|
||-7----------------------------------------------|
||------------------------------------------------|
||------------------------------------------------|
||
||------------------------------------------------|
||---------------------------------3-------3------|
||-2-------------------------------1-------1------|
||------------------------------------------------|
||------------------------------------------------|
||------------------------------------------------|

   |       |       |       |       |       |
||---------7-------6-------6-------7-------7------|
||------------------------------------------------|
||------------------------------------------------|
||------------------------------------------------|
||------------------------------------------------|
||------------------------------------------------|
||
||------------------------------------------------|
||---------3-------2---------------3-------3------|
||---------1-----------------------1-------1------|
||------------------------------------------------|
||------------------------------------------------|
||------------------------------------------------|

   |       |       |       |       |       |
||---------0-------0-------2===========----0------|
||------------------------------------------------|
||------------------------------------------------|
||------------------------------------------------|
||------------------------------------------------|
||------------------------------------------------|
||
||------------------------------------------------|
||---------3-------3------------------------------|
||---------1-------1---------------2-------2------|
||------------------------------------------------|
||------------------------------------------------|
||------------------------------------------------|

   |       |       |       |       |       |
||---------0-------0-------7===========----5------|
||------------------------------------------------|
||------------------------------------------------|
||------------------------------------------------|
||------------------------------------------------|
||------------------------------------------------|
||
||------------------------------------------------|
||------------------------------------------------|
||---------2-------2---------------2-------2------|
||------------------------------------------------|
||------------------------------------------------|
||------------------------------------------------|

   |       |       |       |       |       |
||---------10------9-------9-------7-------7------|
||------------------------------------------------|
||------------------------------------------------|
||------------------------------------------------|
||------------------------------------------------|
||------------------------------------------------|
||
||------------------------------------------------|
||---------3-------2---------------3-------3------|
||---------------------------------1-------1------|
||------------------------------------------------|
||------------------------------------------------|
||------------------------------------------------|

   |       |       |       |       |       |
||---------7-------9-------12------10------10-----|
||------------------------------------------------|
||------------------------------------------------|
||------------------------------------------------|
||------------------------------------------------|
||------------------------------------------------|
||
||------------------------------------------------|
||---------3-----------------------3-------3------|
||---------1-------3---------------1-------1------|
||------------------------------------------------|
||------------------------------------------------|
||------------------------------------------------|

   |       |       |       |       |       |
||---------4-------7-------7===========----5------|
||------------------------------------------------|
||------------------------------------------------|
||------------------------------------------------|
||------------------------------------------------|
||------------------------------------------------|
||
||------------------------------------------------|
||---------3-------3-------0===========-----------|
||---------1-------1-----------------------2------|
||------------------------------------------------|
||------------------------------------------------|
||------------------------------------------------|

   |       |       |       |       |       |
||-4=======----2-----------2---2---2-------0------|
||-----------------3------------------------------|
||---------------------4--------------------------|
||------------------------------------------------|
||------------------------------------------------|
||------------------------------------------------|
||
||------------------------------------------------|
||---------------------------------3-------3------|
||---------------------------------4-------4------|
||-4===================---------------------------|
||------------------------------------------------|
||------------------------------------------------|

   |       |       |       |       |       |       |       |       |
||-------------------------5h7p5h7p5h7p5h7p5h7p5h7p5h7p5h7p5h7p5h7p5h7p5h7-|
||-------------------------------------------------------------------------|
||-2-----------------------------------------------------------------------|
||-------------------------------------------------------------------------|
||-------------------------------------------------------------------------|
||-------------------------------------------------------------------------|
||
||-------------------------0===============-------------------------------|
||------------------------------------------------------------------------|
||-2-----------------------------------------------2===============-------|
||------------------------------------------------------------------------|
||------------------------------------------------------------------------|
||------------------------------------------------------------------------|

   |       |       |       |       |       |
||p5----------------------------------------------|
||------------------------------------------------|
||------------------------------------------------|
||------------------------------------------------|
||------------------------------------------------|
||------------------------------------------------|
||
||-0===============-------------------------------|
||------------------------------------------------|
||------------------------------------------------|
||------------------------------------------------|
||-----------------------------------------0------|
||------------------------------------------------|

   |       |       |       |       |       |
||---------5-------5---------------5-------5------|
||------------------------------------------------|
||-----2-------2-------2-------2-------2-------2--|
||-5-----------------------5----------------------|
||------------------------------------------------|
||------------------------------------------------|
||
||------------------------------------------------|
||------------------------------------------------|
||------------------------------------------------|
||------------------------------------------------|
||-----------------0-----------------------0------|
||-3-----------------------3----------------------|

   |       |       |       |       |       |
||---------5-------5---------------5-------5------|
||------------------------------------------------|
||-----2-------2-------2-------2-------2-------2--|
||-5-----------------------5----------------------|
||------------------------------------------------|
||------------------------------------------------|
||
||------------------------------------------------|
||------------------------------------------------|
||------------------------------------------------|
||-4=======================--------2--------------|
||-----------------------------------------0------|
||------------------------------------------------|

   |       |       |       |       |       |
||---------5-------5---------------5-------5------|
||------------------------------------------------|
||-----2-------2-------2-------2-------2-------2--|
||-4-----------------------4----------------------|
||------------------------------------------------|
||------------------------------------------------|
||
||------------------------------------------------|
||------------------------------------------------|
||------------------------------------------------|
||------------------------------------------------|
||-----------------0-----------------------0------|
||-2-----------------------2----------------------|

   |       |       |       |       |       |
||---------5-------5---------------5-------5------|
||------------------------------------------------|
||-----2-------2-------2-------2-------2-------2--|
||-4-----------------------4----------------------|
||------------------------------------------------|
||------------------------------------------------|
||
||------------------------------------------------|
||------------------------------------------------|
||------------------------------------------------|
||-2=======================--------0--------------|
||-----------------------------------------0------|
||------------------------------------------------|

   |       |       |       |       |       |
||---------5-------5---------------5-------5------|
||------------------------------------------------|
||-----2-------2-------2-------2-------2-------2--|
||-5-----------------------5----------------------|
||------------------------------------------------|
||------------------------------------------------|
||
||------------------------------------------------|
||------------------------------------------------|
||------------------------------------------------|
||------------------------------------------------|
||-----------------0-----------------------0------|
||-3-----------------------3----------------------|

   |       |       |       |       |       |
||---------5-------5---------------5-------5------|
||------------------------------------------------|
||-----2-------2-------2-------2-------2-------2--|
||-5-----------------------5----------------------|
||------------------------------------------------|
||------------------------------------------------|
||
||------------------------------------------------|
||------------------------------------------------|
||------------------------------------------------|
||-4=======================--------2--------------|
||-----------------------------------------0------|
||------------------------------------------------|

   |       |       |       |       |       |
||---------0-------2-------5===========----3------|
||-3----------------------------------------------|
||------------------------------------------------|
||------------------------------------------------|
||------------------------------------------------|
||------------------------------------------------|
||
||------------------------------------------------|
||------------------------------------------------|
||-------------------------2===========----0------|
||-0-------2-------4------------------------------|
||------------------------------------------------|
||------------------------------------------------|

   |       |       |       |       |       |
||-2---2---2-------0------------------------------|
||-------------------------3----------------------|
||---------------------2--------------------------|
||------------------------------------------------|
||------------------------------------------------|
||------------------------------------------------|
||
||------------------------------------------------|
||------------------------------------------------|
||------------------------------------------------|
||-4---4---4-------2-------0----------------------|
||---------------------0-------------------0------|
||------------------------------------------------|

   |       |       |       |       |       |
||---------5-------5---------------5-------5------|
||------------------------------------------------|
||-----2-------2-------2-------2-------2-------2--|
||-5-----------------------5----------------------|
||------------------------------------------------|
||------------------------------------------------|
||
||------------------------------------------------|
||------------------------------------------------|
||------------------------------------------------|
||------------------------------------------------|
||-----------------0-----------------------0------|
||-3-----------------------3----------------------|

   |       |       |       |       |       |
||---------5-------5---------------5-------5------|
||------------------------------------------------|
||-----2-------2-------2-------2-------2-------2--|
||-5-----------------------5----------------------|
||------------------------------------------------|
||------------------------------------------------|
||
||------------------------------------------------|
||------------------------------------------------|
||------------------------------------------------|
||-4=======================--------2--------------|
||-----------------------------------------0------|
||------------------------------------------------|

   |       |       |       |       |       |
||---------5-------5---------------5-------5------|
||------------------------------------------------|
||-----2-------2-------2-------2-------2-------2--|
||-4-----------------------4----------------------|
||------------------------------------------------|
||------------------------------------------------|
||
||------------------------------------------------|
||------------------------------------------------|
||------------------------------------------------|
||------------------------------------------------|
||-----------------0-----------------------0------|
||-2-----------------------2----------------------|

   |       |       |       |       |       |
||---------5-------5---------------5-------5------|
||------------------------------------------------|
||-----2-------2-------2-------2-------2-------2--|
||-4-----------------------4----------------------|
||------------------------------------------------|
||------------------------------------------------|
||
||------------------------------------------------|
||------------------------------------------------|
||------------------------------------------------|
||-2=======================--------0--------------|
||-----------------------------------------0------|
||------------------------------------------------|

   |       |       |       |       |       |
||---------5-------5---------------5-------5------|
||------------------------------------------------|
||-----2-------2-------2-------2-------2-------2--|
||-5-----------------------5----------------------|
||------------------------------------------------|
||------------------------------------------------|
||
||------------------------------------------------|
||------------------------------------------------|
||------------------------------------------------|
||------------------------------------------------|
||-----------------0-----------------------0------|
||-3-----------------------3----------------------|

   |       |       |       |       |       |
||---------5-------5---------------5-------5------|
||------------------------------------------------|
||-----2-------2-------2-------2-------2-------2--|
||-5-----------------------5----------------------|
||------------------------------------------------|
||------------------------------------------------|
||
||------------------------------------------------|
||------------------------------------------------|
||------------------------------------------------|
||-4=======================--------2--------------|
||-----------------------------------------0------|
||------------------------------------------------|

   |       |       |       |       |       |
||---------0-------2-------5===========----3------|
||-3----------------------------------------------|
||------------------------------------------------|
||------------------------------------------------|
||------------------------------------------------|
||------------------------------------------------|
||
||------------------------------------------------|
||------------------------------------------------|
||-------------------------2===========----0------|
||-0-------2-------4------------------------------|
||------------------------------------------------|
||------------------------------------------------|

   |       |       |       |       |       |
||-2---2---2-------0-----------------------10-----|
||-------------------------3----------------------|
||---------------------2--------------------------|
||------------------------------------------------|
||------------------------------------------------|
||------------------------------------------------|
||
||------------------------------------------------|
||------------------------------------------------|
||------------------------------------------------|
||-4---4---4-------2-------0----------------------|
||---------------------0--------------------------|
||------------------------------------------------|

   |       |       |       |       |       |
||-10======================--------11------10-----|
||------------------------------------------------|
||------------------------------------------------|
||------------------------------------------------|
||------------------------------------------------|
||------------------------------------------------|
||
||---------6---10--6---------------6---10--6------|
||-----6---------------6-------6---------------6--|
||-7-----------------------7----------------------|
||------------------------------------------------|
||------------------------------------------------|
||------------------------------------------------|

   |       |       |       |       |       |
||-8-----------------------------------------------|
||---------11------10------8=======--------------8-|
||-------------------------------------------------|
||-------------------------------------------------|
||-------------------------------------------------|
||-------------------------------------------------|
||
||-------------8-----------------------8----------|
||---------8-------8---------------8-------8------|
||-----8---------------8-------8---------------8--|
||-10----------------------10---------------------|
||------------------------------------------------|
||------------------------------------------------|

   |       |       |       |       |       |
||-8---------------8=======-----------------------|
||------------------------------10p8=======-------|
||----------------------------10---------------10-|
||------------------------------------------------|
||------------------------------------------------|
||------------------------------------------------|
||
||---------5---8---5---------------5---8---5------|
||-----6---------------6-------6---------------6--|
||-8-----------------------8----------------------|
||------------------------------------------------|
||------------------------------------------------|
||------------------------------------------------|

   |       |       |       |       |       |
||------------------------------------------------|
||------------------------------------------------|
||-10======================----------------10-----|
||------------------------------------------------|
||------------------------------------------------|
||------------------------------------------------|
||
||---------6---10--6------------------------------|
||-----6---------------6--------------------------|
||-7-----------------------8-------7--------------|
||-------------------------10------8-------10-----|
||-----------------------------------------8------|
||------------------------------------------------|

   |       |       |       |       |       |
||-10======================--------11------10-----|
||------------------------------------------------|
||------------------------------------------------|
||------------------------------------------------|
||------------------------------------------------|
||------------------------------------------------|
||
||------------------------------------------------|
||-------------3-----------------------3----------|
||---------3-------3---------------3-------3------|
||-----3---------------3-------3---------------3--|
||-1-----------------------1----------------------|
||------------------------------------------------|

   |       |       |       |       |       |
||-8----------------------------------------------|
||---------11------10------8=======---------------|
||------------------------------------------------|
||------------------------------------------------|
||------------------------------------------------|
||------------------------------------------------|
||
||------------------------------------------------|
||-------------1-----------------------2----------|
||---------0-------0---------------0-------0------|
||-----2---------------2-------2---------------2--|
||-3-----------------------4----------------------|
||------------------------------------------------|

   |       |       |       |       |       |
||------------------------------------------------|
||---------------------------------8=======----11-|
||-11==========----11==========-------------------|
||------------------------------------------------|
||------------------------------------------------|
||------------------------------------------------|
||
||------------------------------------------------|
||-------------3-----------------------3----------|
||---------2-------2-----------0---3-------3---0--|
||-----4---------------4---2----------------------|
||-5----------------------------------------------|
||------------------------------------------------|

   |       |       |       |       |       |
||------------------------------------------------|
||-10======================-----------------------|
||------------------------------------------------|
||-7=======================-----------------------|
||------------------------------------------------|
||------------------------------------------------|
||
||------------------------------------------------|
||-3=======================-----------------------|
||------------------------------------------------|
||-4=======================-----------------------|
||-----------------------------------------0------|
||------------------------------------------------|

   |       |       |       |       |       |
||---------5-------5---------------5-------5------|
||------------------------------------------------|
||-----2-------2-------2-------2-------2-------2--|
||-5-----------------------5----------------------|
||------------------------------------------------|
||------------------------------------------------|
||
||------------------------------------------------|
||------------------------------------------------|
||------------------------------------------------|
||------------------------------------------------|
||-----------------0-----------------------0------|
||-3-----------------------3----------------------|

   |       |       |       |       |       |
||---------5-------5---------------5-------5------|
||------------------------------------------------|
||-----2-------2-------2-------2-------2-------2--|
||-5-----------------------5----------------------|
||------------------------------------------------|
||------------------------------------------------|
||
||------------------------------------------------|
||------------------------------------------------|
||------------------------------------------------|
||-4=======================--------2--------------|
||-----------------------------------------0------|
||------------------------------------------------|

   |       |       |       |       |       |
||---------5-------5---------------5-------5------|
||------------------------------------------------|
||-----2-------2-------2-------2-------2-------2--|
||-4-----------------------4----------------------|
||------------------------------------------------|
||------------------------------------------------|
||
||------------------------------------------------|
||------------------------------------------------|
||------------------------------------------------|
||------------------------------------------------|
||-----------------0-----------------------0------|
||-2-----------------------2----------------------|

   |       |       |       |       |       |
||---------5-------5---------------5-------5------|
||------------------------------------------------|
||-----2-------2-------2-------2-------2-------2--|
||-4-----------------------4----------------------|
||------------------------------------------------|
||------------------------------------------------|
||
||------------------------------------------------|
||------------------------------------------------|
||------------------------------------------------|
||-2=======================--------0--------------|
||-----------------------------------------0------|
||------------------------------------------------|

   |       |       |       |       |       |
||---------5-------5---------------5-------5------|
||------------------------------------------------|
||-----2-------2-------2-------2-------2-------2--|
||-5-----------------------5----------------------|
||------------------------------------------------|
||------------------------------------------------|
||
||------------------------------------------------|
||------------------------------------------------|
||------------------------------------------------|
||------------------------------------------------|
||-----------------0-----------------------0------|
||-3-----------------------3----------------------|

   |       |       |       |       |       |
||---------5-------5---------------5-------5------|
||------------------------------------------------|
||-----2-------2-------2-------2-------2-------2--|
||-5-----------------------5----------------------|
||------------------------------------------------|
||------------------------------------------------|
||
||------------------------------------------------|
||------------------------------------------------|
||------------------------------------------------|
||-4=======================--------2--------------|
||-----------------------------------------0------|
||------------------------------------------------|

   |       |       |       |       |       |
||---------0-------2-------5===========----3------|
||-3----------------------------------------------|
||------------------------------------------------|
||------------------------------------------------|
||------------------------------------------------|
||------------------------------------------------|
||
||------------------------------------------------|
||------------------------------------------------|
||-------------------------2===========----0------|
||-0-------2-------4------------------------------|
||------------------------------------------------|
||------------------------------------------------|

   |       |       |       |       |       |
||-2---2---2-------0------------------------------|
||-------------------------3----------------------|
||---------------------2--------------------------|
||------------------------------------------------|
||------------------------------------------------|
||------------------------------------------------|
||
||------------------------------------------------|
||------------------------------------------------|
||------------------------------------------------|
||-4---4---4-------2-------0----------------------|
||---------------------0-------------------0------|
||------------------------------------------------|

   |       |       |       |       |       |
||---------5-------5---------------5-------5------|
||------------------------------------------------|
||-----2-------2-------2-------2-------2-------2--|
||-5-----------------------5----------------------|
||------------------------------------------------|
||------------------------------------------------|
||
||------------------------------------------------|
||------------------------------------------------|
||------------------------------------------------|
||------------------------------------------------|
||-----------------0-----------------------0------|
||-3-----------------------3----------------------|

   |       |       |       |       |       |
||---------5-------5---------------5-------5------|
||------------------------------------------------|
||-----2-------2-------2-------2-------2-------2--|
||-5-----------------------5----------------------|
||------------------------------------------------|
||------------------------------------------------|
||
||------------------------------------------------|
||------------------------------------------------|
||------------------------------------------------|
||-4=======================--------2--------------|
||-----------------------------------------0------|
||------------------------------------------------|

   |       |       |       |       |       |
||---------5-------5---------------5-------5------|
||------------------------------------------------|
||-----2-------2-------2-------2-------2-------2--|
||-4-----------------------4----------------------|
||------------------------------------------------|
||------------------------------------------------|
||
||------------------------------------------------|
||------------------------------------------------|
||------------------------------------------------|
||------------------------------------------------|
||-----------------0-----------------------0------|
||-2-----------------------2----------------------|

   |       |       |       |       |       |
||---------5-------5---------------5-------5------|
||------------------------------------------------|
||-----2-------2-------2-------2-------2-------2--|
||-4-----------------------4----------------------|
||------------------------------------------------|
||------------------------------------------------|
||
||------------------------------------------------|
||------------------------------------------------|
||------------------------------------------------|
||-2=======================--------0--------------|
||-----------------------------------------0------|
||------------------------------------------------|

   |       |       |       |       |       |
||---------5-------5---------------5-------5------|
||------------------------------------------------|
||-----2-------2-------2-------2-------2-------2--|
||-5-----------------------5----------------------|
||------------------------------------------------|
||------------------------------------------------|
||
||------------------------------------------------|
||------------------------------------------------|
||------------------------------------------------|
||------------------------------------------------|
||-----------------0-----------------------0------|
||-3-----------------------3----------------------|

   |       |       |       |       |       |
||---------5-------5---------------5-------5------|
||------------------------------------------------|
||-----2-------2-------2-------2-------2-------2--|
||-5-----------------------5----------------------|
||------------------------------------------------|
||------------------------------------------------|
||
||------------------------------------------------|
||------------------------------------------------|
||------------------------------------------------|
||-4=======================--------2--------------|
||-----------------------------------------0------|
||------------------------------------------------|

   |       |       |       |       |       |
||---------0-------2-------5===========----3------|
||-3----------------------------------------------|
||------------------------------------------------|
||------------------------------------------------|
||------------------------------------------------|
||------------------------------------------------|
||
||------------------------------------------------|
||------------------------------------------------|
||-------------------------2===========----0------|
||-0-------2-------4------------------------------|
||------------------------------------------------|
||------------------------------------------------|

   |       |       |       |       |       |
||-2---2---2-------0------------------------------|
||-------------------------3----------------------|
||---------------------2--------------------------|
||------------------------------------------------|
||------------------------------------------------|
||------------------------------------------------|
||
||------------------------------------------------|
||------------------------------------------------|
||------------------------------------------------|
||-4---4---4-------2-------0----------------------|
||---------------------0--------------------------|
||------------------------------------------------|
Tap to rate this tab
# A B C D E F G H I J K L M N O P Q R S T U V W X Y Z