Song name
# A B C D E F G H I J K L M N O P Q R S T U V W X Y Z

Johannes Brahms - Symphony No 1 4th Movement chords

                          SYMPHONY NO. 1 (4TH MOVEMENT)
                         As recorded by Johannes Brahms

Music by Johannes Brahms
Transcribed by Ben Goodrich

Gtr I (E A D G B E) - 'Untitled'

  Q=130
 4/4
  Gtr I
  H.      Q    H     Q  Q    H     Q  Q    Q  E E Q  Q    H     Q  Q
|------------|-------------|-------------|--------------|---------------|
|------------|-1-----0--1--|----------1--|-3--5p3-5-----|-3-----3-------|
|---------0--|-------------|-2-----0-----|-4--5p4-5--5--|-4-----4--0----|
|------------|-2-----0--2--|-3-----2-----|-----------5--|---------------|
|------------|-3--3-----3--|-3--3-----3--|-----------3--|-3--3----------|
|------------|-------------|-------------|-3--3---------|---------------|
  W            Q  Q  Q  Q    Q  Q  Q  Q    Q  Q   Q  Q    Q  Q  H


  H     Q  Q    H     Q  Q    Q  E E Q  Q    H     Q  Q
|-------------|-------------|--------------|-------------|
|-1-----0--1--|----------1--|-3--5h6-5-----|-3-----------|
|-------------|-2-----0-----|-4--5---5--5--|-4-----5--0--|
|-2-----0--2--|-3-----2-----|-----------5--|-------5-----|
|-3--3-----3--|-3--3-----3--|-----------3--|-3--3--------|
|-------------|-------------|-3--3---------|-------------|
  Q  Q  Q  Q    Q  Q  Q  Q    Q  Q   Q  Q    Q  Q  H


  Q   E E Q  Q    +Q   E E Q  Q     Q   E E Q  Q    H    H      Q  E E Q  E E
|-----0h1p0-----|------0h1p0-----|------0-1-0-----|------5----|-3----0-1--3---|
|-3----------3--|-(3)---------3--|-(3)---------0--|-1---------|----3--------3-|
|------------3--|--2----------2--|--1-------2--1--|-2----5----|---------------|
|---------------|--3----------3--|--2---2-0----2--|------3----|----3-2-0------|
|---------------|----------------|----------3-----|-0---------|-----------2---|
|-3-------------|----------------|----------------|-----------|---------------|
  H.         Q     H.         Q     Q   E E Q  Q    H    H      Q  E E Q  Q


  Q  E E Q  Q    H      Q  Q    +Q   E E H            W
|-0------------|--------1--0--|-(0)-----------------|------||
|----3---0-----|-----------1--|-(1)--3-1-0----------|-1----||
|------2----0--|-2------------|------2-------0------|------||
|--------------|----3-2-0--2--|--3---------------3--|-2----||
|-3------------|--------------|---------------------|-3----||
|----2---3-----|--------------|----------3--(3)-(3)-|------||
  Q  Q   H       Q  E E Q  Q     H       Q   E   E
Tap to rate this tab
# A B C D E F G H I J K L M N O P Q R S T U V W X Y Z