Song name
# A B C D E F G H I J K L M N O P Q R S T U V W X Y Z

Johannes Brahms - Lullaby tab

 I took this tab from the real notes, so its 99.9% correct
Any corrections, send me a message...
 I can't remember the timing, but Its not hard to play it and make it sound good...
 Enjoy it!

e|------------------------------|
B|------3--------3--------------|
G|--4-4------4-4----------------|
D|------------------------------|
A|------------------------------|
E|------------------------------|

e|------4-2---------------------|
B|----3-------5-5-3-------------|
G|--4---------------------------|
D|------------------------------|
A|------------------------------|
E|------------------------------|

e|------------------------------|
B|------------------------------|
G|--2-4-5-2---2-4-5-------------|
D|------------------------------|
A|------------------------------|
E|------------------------------|

e|------2-0---2-3~~-------------|
B|----------3-------------------|
G|--3-5-------------------------|
D|------------------------------|
A|------------------------------|
E|------------------------------|
~ vibrato
Tap to rate this tab
 
# A B C D E F G H I J K L M N O P Q R S T U V W X Y Z