Song name
# A B C D E F G H I J K L M N O P Q R S T U V W X Y Z

Johannes Brahms - Hungarian Dance No 5 tab

Tabbed by PsychoticPanda
Standard tuning

Johannes Brahms - Hungarian Dance no. 5


Hi guys, this is my first tab. I'm pretty sure it's right, but I'm open for corrections. 
Hope you like it!


E|---------------------------------------------------------------|
B|-----------------------11--------------------------------------|
G|-----------------12--------------------12-------11-------------|
D|------12-------------------------------------------------------|
A|---------------------------------------------------------------|
E|---------------------------------------------------------------|

E|---------------------------------------------------------------|
B|---------------------------------------------------------------|
G|------12---14----12-----------------------10---12--------------|
D|------------------------------13--------------------------12---|
A|---------------------------------------------------------------|
E|---------------------------------------------------------------|

E|---------------------------------------------------------------|
B|---------------------------------------------------------------|
G|---------------------------------------------------------------|
D|-------10-------------------12---------------------------------|
A|-----------13-13-12-12-------------------10--------------------|
E|---------------------------------------------------------------|

E|----------------------10---------------------------------------|
B|------------------11----------11--10--11--h13--11--------------|
G|-------------12------------------------------------------------|
D|----12---------------------------------------------------------|
A|---------------------------------------------------------------|
E|---------------------------------------------------------------|

E|--11--13--15--11--10--11--13--10--8--10--11--8--6--8--10--6----|
B|---------------------------------------------------------------|
G|---------------------------------------------------------------|
D|---------------------------------------------------------------|
A|---------------------------------------------------------------|
E|---------------------------------------------------------------|

E|-----8--6--6--5--5------10--------------15---------------------|
B|--------------------------------8------------------------------|
G|---------------------------------------------------------------|
D|---------------------------------------------------------------|
A|---------------------------------------------------------------|
E|---------------------------------------------------------------|

E|---------------------------------------------------------------|
B|-----------------------11--------------------------------------|
G|-----------------12--------------------12-------11-------------|
D|------12-------------------------------------------------------|
A|---------------------------------------------------------------|
E|---------------------------------------------------------------|

E|---------------------------------------------------------------|
B|---------------------------------------------------------------|
G|------12---14----12-----------------------10---12--------------|
D|------------------------------13--------------------------12---|
A|---------------------------------------------------------------|
E|---------------------------------------------------------------|

E|---------------------------------------------------------------|
B|---------------------------------------------------------------|
G|---------------------------------------------------------------|
D|-------10-------------------12---------------------------------|
A|-----------13-13-12-12-------------------10--------------------|
E|---------------------------------------------------------------|

E|------------------------------10-------------------------------|
B|--------------------------11--------12----10------11-h13-11----|
G|---------------------12----------------------------------------|
D|-----------------12--------------------------------------------|
A|---------10--13------------------------------------------------|
E|----10---------------------------------------------------------|

E|--11--13--15--11--10--11--13--10--8--10--11--8--6--8--10--6----|
B|---------------------------------------------------------------|
G|---------------------------------------------------------------|
D|---------------------------------------------------------------|
A|---------------------------------------------------------------|
E|---------------------------------------------------------------|

E|-----8--6--6--5--5------10--------------15---------------------|
B|--------------------------------8------------------------------|
G|---------------------------------------------------------------|
D|---------------------------------------------------------------|
A|---------------------------------------------------------------|
E|---------------------------------------------------------------|

E|---------------------------------------------------------------|
B|---------------------------------------------------------------|
G|---------------------------------------------------------------|
D|---------------------------------------------------------------|
A|---------------------------------------------------------------|
E|---------------------------------------------------------------|

E|------10---10---11---10-------------------10--------10---------|
B|----------------------------13-----12--13----13--12----13------|
G|---------------------------------------------------------------|
D|---------------------------------------------------------------|
A|---------------------------------------------------------------|
E|---------------------------------------------------------------|

E|------------10-------------------------------------------------|
B|-----13--13----13--11--10--11--13--11--10--13--11--------------|
G|---------------------------------------------------------------|
D|---------------------------------------------------------------|
A|---------------------------------------------------------------|
E|---------------------------------------------------------------|

E|---------------------------------------------------------------|
B|----10--10--13--11----10-----8-----7--8--10--8--7--10--8-------|
G|---------------------------------------------------------------|
D|---------------------------------------------------------------|
A|---------------------------------------------------------------|
E|---------------------------------------------------------------|

E|---10----------------------------------------------------------|
B|----------------------7--8--8--7--8--10--8--7--8--10--8--------|
G|--------------7---9--------------------------------------------|
D|---------------------------------------------------------------|
A|---------------------------------------------------------------|
E|---------------------------------------------------------------|
Tap to rate this tab
# A B C D E F G H I J K L M N O P Q R S T U V W X Y Z