Guitaretab - guitar tabs
Song name
# A B C D E F G H I J K L M N O P Q R S T U V W X Y Z

Johannes Linstead - La Surpiente tab

Johannes Linstead - La Surpiente [Intro]
Album -  Kiss The Earth [2000]
Website - http://www.johanneslinstead.com

Tabbed by: Subduer - 100% Ear-Transcribed
E-mail: Exalteth@Gmail.com

Standard Tuning

Well here it is, I'm sure the tabs is correct, but if anyone
thinks otherwise, let me know. My e-mail is posted at the top. 
Thanks!...and enjoy!

Note*I also have this intro on Guitar Pro so if anyone prefers it please let me know.



Guitar 1
                                                   Repeatx2
  e -----3--5--6----3--5--6------3--5--6----5--8--6-|
  B --3----------3------------4----------4----------|
  G ------------------------------------------------|
  D ------------------------------------------------|
  A ------------------------------------------------|
  E ------------------------------------------------|

(Second guitar joins)

Guitar 1
[ Tab from: http://www.guitaretab.com/j/johannes-linstead/109430.html ]
  e -----3--5--6----3--5--6------3--5--6----5--8--6-|-----3--5--6----3--5--6------3--5--6-5------3|
  B --3----------3------------4----------4----------|--3----------3------------4------------------|
  G ------------------------------------------------|---------------------------------------------|
  D ------------------------------------------------|---------------------------------------------|
  A -----------------------------------------------|----------------------------------------------|
  E ------------------------------------------------|---------------------------------------------|

Guitar 2

  e -----6--8-10----6--8-10------6--8-10----8-11-10-|-----6--8-10----6--8-10------6--8-10-8------6|
  B --8----------8------------8----------8----------|--8----------8------------8------------------|
  G ------------------------------------------------|---------------------------------------------|
  D ------------------------------------------------|---------------------------------------------|
  A ------------------------------------------------|---------------------------------------------|
  E ------------------------------------------------|---------------------------------------------|




Copyright - Johannes Linstead 2000
All Rights Reserved - International Copyright Secured
Advertisement will be closed in 10 seconds