Song name
# A B C D E F G H I J K L M N O P Q R S T U V W X Y Z

John 5 - The Washing Away Of Wrong tab

                          The Washing Away Of Wrong - John 5

John 5 [Lead]
Tuning:Standard


      <                    <
      W                    W                              W
E||---------------------|------------------------------|-------------------|
B||--11-----------------|------------------------------|-------------------|
G||---------------------|------------------------------|-------------------|
D||---------------------|------------------------------|-------------------|
A||---------------------|------------------------------|-------------------|
E||---------------------|--0---------------------------|--L----------------|


  W                   W                   W                   W
-------------------|-------------------|-------------------|-------------------|
-------------------|-------------------|-------------------|-------------------|
-------------------|-------------------|-------------------|-------------------|
-------------------|-------------------|-------------------|-------------------|
-------------------|-------------------|-------------------|-------------------|
--L----------------|--L----------------|--L----------------|--L----------------|


  W                   W
-------------------|-------------------|
-------------------|-------------------|
-------------------|-------------------|
-------------------|-------------------|
-------------------|-------------------|
--L----------------|--L----------------|


   PMPM PM  PMPM PM  PMPM PM  PMPM PM
   S S  S   S S  S   S S  S   S S  S   S   S   E
--------------------------------------------------|
--------------------------------------------------|
--------------------------------------------------|
--------------------------------------------------|
--------------------------------------10s-12s-10--|
--12-0--0--12-0--0--12-0--0--12-0--0--------------|


   PM PM  PMPM PM  PMPM PM  PMPM PM  PMPM  PMPM
   E  S   S S  S   S S  S   S S  S   S S   S S
------------------------------------------------|
------------------------------------------------|
------------------------------------------------|
------------------------------------------------|
------------------------------------------------|
--12--0--12-0--0--12-0--0--12-0--0--10-0--10-0--|


   PMPM PM  PMPM PM  PMPM PM  PMPM PM
   S S  S   S S  S   S S  S   S S  S   S   S   E
--------------------------------------------------|
--------------------------------------------------|
--------------------------------------------------|
--------------------------------------------------|
--------------------------------------10s-12s-10--|
--12-0--0--12-0--0--12-0--0--12-0--0--------------|


   PM PM  PMPM PM  PMPM PM  PMPM PM  PMPM  PMPM
   E  S   S S  S   S S  S   S S  S   S S   S S
------------------------------------------------|
------------------------------------------------|
------------------------------------------------|
------------------------------------------------|
------------------------------------------------|
--12--0--12-0--0--12-0--0--12-0--0--10-0--10-0--|


   PMPM PM  PMPM PM  PMPM PM  PMPM PM
   S S  S   S S  S   S S  S   S S  S   S   S   E
--------------------------------------------------|
--------------------------------------------------|
--------------------------------------------------|
--------------------------------------------------|
--------------------------------------10s-12s-10--|
--12-0--0--12-0--0--12-0--0--12-0--0--------------|


   PM PM  PMPM PM  PMPM PM  PMPM PM  PMPM  PMPM
   E  S   S S  S   S S  S   S S  S   S S   S S
------------------------------------------------|
------------------------------------------------|
------------------------------------------------|
------------------------------------------------|
------------------------------------------------|
--12--0--12-0--0--12-0--0--12-0--0--10-0--10-0--|


   PMPM PM  PMPM PM  PMPM PM  PMPM PM
   S S  S   S S  S   S S  S   S S  S   S   S   E
--------------------------------------------------|
--------------------------------------------------|
--------------------------------------------------|
--------------------------------------------------|
--------------------------------------10s-12s-10--|
--12-0--0--12-0--0--12-0--0--12-0--0--------------|


   PM PM  PMPM PM  PMPM PM  PMPM PM  PMPM  PMPM
   E  S   S S  S   S S  S   S S  S   S S   S S
------------------------------------------------|
------------------------------------------------|
------------------------------------------------|
------------------------------------------------|
------------------------------------------------|
--12--0--12-0--0--12-0--0--12-0--0--10-0--10-0--|


   |--6--|  |--6--|   |--6--|  |--6--|  |---6--|  |--6--|  |--6--|  |---6--|
   S  S  S  S  S  S   S  S  S  S  S  S  S   S  S  S  S  S  S  S  S  S   S  S
-----------------------------------------------------------------------------|
-----------------------------------------------------------------------------|
-----------------------------------------------------------------------------|
---------------------------------14-16-17S-12-14-15-12-----------------------|
-----------12-14-15S-14-16-17-16-----------------------15-12-12-14-15S-14-16-|
--14-15-14-------------------------------------------------------------------|


   |------5-----|
   S   S  S  S  S  S  S   S  S  S  S  E   Q
------------------------------------------------|
------------------------------------------------|
------------------------------------------------|
------------------------------------------------|
--17\-12-14-15-12-------------------------------|
------------------15-14S-14-16-17-14-15--14~----|


   S   S  S  S S  E   S   S  S  S  S  E    E
----------------------------------------------|
----------------------------------------------|
-------------------------------------12b------|
----------------------------12-14-12------14--|
------------10-L-12--12s-14-------------------|
--10h-12-12-----------------------------------|


   S  S  S  S S  E   S  S  S  S  S  E   E
-------------------------------------------|
--------------------------12-15-12-15b--L--|
-----------12-L-14--14b-L------------------|
--12-14-14---------------------------------|
-------------------------------------------|
-------------------------------------------|


              PM PM PM PM            PM PM PM PM            PM PM
   |---3---|              |---3---|              |---3---|
   S   S   S  S  S  S  S  S   S   S  S  S  S  S  S   S   S  S  S
-----------------------------------------------------------------|
--12h-13p-12-------------12h-13p-12-------------11h-12p-11-------|
-------------15-12-15-15------------15-12-15-15------------14-11-|
-----------------------------------------------------------------|
-----------------------------------------------------------------|
-----------------------------------------------------------------|


   PM PM            PM PM PM PM
         |---3---|
   S  S  S   S   S  S  S  S  S Q     E    S   S
-----------------------------------------12h-15-|
--------10h-11p-10------------------15b---------|
--14-14------------13-10-13-10-9----------------|
------------------------------------------------|
------------------------------------------------|
------------------------------------------------|


   T          T          T          T          T          T          T
   |---6---|  |---6---|  |---6---|  |---6---|  |---6---|  |---6---|  |---6---|
   S   S   S  S   S   S  S   S   S  S   S   S  S   S   S  S   S   S  S   S   S
--19p-15p-12------------18p-15p-12------------17p-15p-12------------16p-15p-12---|
-------------19p-15p-12------------18p-15p-12------------17p-15p-12------------1-|
---------------------------------------------------------------------------------|
---------------------------------------------------------------------------------|
---------------------------------------------------------------------------------|
---------------------------------------------------------------------------------|


   T          T          T          T          T          T          T
   |---6---|  |---6---|  |---6---|  |---6---|  |---6---|  |---6---|  |---3---|
   S   S   S  S   S   S  S   S   S  S   S   S  S   S   S  S   S   S  S   S   S
--17p-15p-12------------16p-15p-12------------15p-14p-12-------------------------|
-------------17p-15p-12------------16p-15p-12------------15p-14p-12--------------|
--------------------------------------------------------------------15p-14p-12---|
-------------------------------------------------------------------------------1-|
---------------------------------------------------------------------------------|
---------------------------------------------------------------------------------|


   PMPM PM  PMPM PM  PMPM PM  PMPM PM
   S S  S   S S  S   S S  S   S S  S   S   S   E
--------------------------------------------------|
--------------------------------------------------|
--------------------------------------------------|
--------------------------------------------------|
--------------------------------------10s-12s-10--|
--12-0--0--12-0--0--12-0--0--12-0--0--------------|


   PM PM  PMPM PM  PMPM PM  PMPM PM  PMPM  PMPM
   E  S   S S  S   S S  S   S S  S   S S   S S
------------------------------------------------|
------------------------------------------------|
------------------------------------------------|
------------------------------------------------|
------------------------------------------------|
--12--0--12-0--0--12-0--0--12-0--0--10-0--10-0--|


   PMPM PM  PMPM PM  PMPM PM  PMPM PM
   S S  S   S S  S   S S  S   S S  S   S   S   E
--------------------------------------------------|
--------------------------------------------------|
--------------------------------------------------|
--------------------------------------------------|
--------------------------------------10s-12s-10--|
--12-0--0--12-0--0--12-0--0--12-0--0--------------|


   PM PM  PMPM PM  PMPM PM  PMPM PM  PMPM  PMPM
   E  S   S S  S   S S  S   S S  S   S S   S S
------------------------------------------------|
------------------------------------------------|
------------------------------------------------|
------------------------------------------------|
------------------------------------------------|
--12--0--12-0--0--12-0--0--12-0--0--10-0--10-0--|


   PMPM PM  PMPM PM  PMPM PM  PMPM PM
   S S  S   S S  S   S S  S   S S  S   S   S   E
--------------------------------------------------|
--------------------------------------------------|
--------------------------------------------------|
--------------------------------------------------|
--------------------------------------10s-12s-10--|
--12-0--0--12-0--0--12-0--0--12-0--0--------------|


   PM PM  PMPM PM  PMPM PM  PMPM PM  PMPM  PMPM
   E  S   S S  S   S S  S   S S  S   S S   S S
------------------------------------------------|
------------------------------------------------|
------------------------------------------------|
------------------------------------------------|
------------------------------------------------|
--12--0--12-0--0--12-0--0--12-0--0--10-0--10-0--|


   PMPM PM  PMPM PM  PMPM PM  PMPM PM
   S S  S   S S  S   S S  S   S S  S   S   S   E
--------------------------------------------------|
--------------------------------------------------|
--------------------------------------------------|
--------------------------------------------------|
--------------------------------------10s-12s-10--|
--12-0--0--12-0--0--12-0--0--12-0--0--------------|


   PM PM  PMPM PM  PMPM PM  PMPM PM  PM  PM PM  PM
   E  S   S S  S   S S  S   S S  S   S   S  S   S
--------------------------------------------------|
--------------------------------------------------|
--------------------------------------------------|
--------------------------------------------------|
--------------------------------------------------|
--12--0--12-0--0--12-0--0--12-0--0--12h-13-10s-12-|


                              PM    PM
  |--3--|     |--3--|                       |--3--|
  S  S  S S S S  S  S S  S  S S   S S   E   S  S  S
----------------------------------------------------|
----------------------------------------------------|
----------------------7s-9-12-8--11-7--10\----------|
--------------5h-7s-9-----------------------2s-4h-5-|
----------5-7---------------------------------------|
--3s-5h-7-------------------------------------------|


       PM      PM      PM
  |--6-|  |--6-|  |--3-|     |---3--|  |--3--|
  S  S S  S  S S  S  S S  E  E  E   E  S  S  S E
--------------------------------------------------|
--------------------------------------------------|
--4p-0----3p-0----2p-0----1-----------------------|
-------4-------3-------2-----------------------5--|
---------------------------------------5h-6h-7----|
-----------------------------3--5s--7-------------|


                               PM    PM
  |--3--|     |--3--|
  S  S  S S S S  S  S S  S  S  S  S  S  S   S  E
---------------------------------------------------|
---------------------------------------------------|
----------------------7s-9-12-10-13-11-14p-12-15\--|
--------------5h-7s-9------------------------------|
----------5-7--------------------------------------|
--3s-5h-7------------------------------------------|


      S  S   S  S   S   S  E       S  S   S  S   S   S  E
---------------12h-15p-12-------------------12h-15p-12------|
------------------------------------------------------------|
--------12h-15------------15\--------12h-15------------15\--|
--12g14------------------------12g14------------------------|
------------------------------------------------------------|
------------------------------------------------------------|


                              PM    PM
  |--3--|     |--3--|                       |--3--|
  S  S  S S S S  S  S S  S  S S   S S   E   S  S  S
----------------------------------------------------|
----------------------------------------------------|
----------------------7s-9-12-8--11-7--10\----------|
--------------5h-7s-9-----------------------2s-4h-5-|
----------5-7---------------------------------------|
--3s-5h-7-------------------------------------------|


       PM      PM      PM
  |--6-|  |--6-|  |--3-|     |---3--|  |--3--|
  S  S S  S  S S  S  S S  E  E  E   E  S  S  S E
--------------------------------------------------|
--------------------------------------------------|
--4p-0----3p-0----2p-0----1-----------------------|
-------4-------3-------2-----------------------5--|
---------------------------------------5h-6h-7----|
-----------------------------3--5s--7-------------|


                               PM    PM
  |--3--|     |--3--|
  S  S  S S S S  S  S S  S  S  S  S  S  S   S  E
---------------------------------------------------|
---------------------------------------------------|
----------------------7s-9-12-10-13-11-14p-12-15\--|
--------------5h-7s-9------------------------------|
----------5-7--------------------------------------|
--3s-5h-7------------------------------------------|


                      SH
     E.   S E   S S   Q.     E      Q     E  E   Q    E  E
---------------------------------|---------------------------|
---------------------------------|---------------------------|
--9g12---11----10---<>7------Lb--|--L\----9--8~--L----8--7~--|
---------------------------------|---------------------------|
---------------------------------|---------------------------|
---------------------------------|---------------------------|


  Q    E  E  Q      Q       E  E  E  E   Q    E  E
-------------------------|---------------------------|
-------------------------|---------------------------|
--L----7--6--7S----10----|--9--9--9--8~--L----8--7~--|
-------------7S----10----|--9--9---------------------|
-------------5S-----8----|--7--7---------------------|
-------------5S-----8----|--7--7---------------------|


  Q    E  E  Q      Q        E  E    E   E   Q     E   E
--------------------------|--------------------------------|
--------------------------|--------------------------------|
--L----7--6--7S----12S----|--9--9--/12--11~--L----11--10~--|
-------------7S----12S----|--9--9--------------------------|
-------------5S----10S----|--7--7--------------------------|
-------------5S----10S----|--7--7--------------------------|


  Q     E  E  Q      Q       E  E    E   E   Q     E   E
--------------------------|--------------------------------|
--------------------------|--------------------------------|
--L----10--9--7S----10----|--9--9--/12--11~--L----11--10~--|
--------------7S----10----|--9--9--------------------------|
--------------5S-----8----|--7--7--------------------------|
--------------5S-----8----|--7--7--------------------------|


                              PMPM PM  PMPM PM  PMPM PM  PMPM PM
  Q     E  E  Q      Q        S S  S   S S  S   S S  S   S S  S   S   S   E
--------------------------|--------------------------------------------------|
--------------------------|--------------------------------------------------|
--L----10--9--7S----12----|--------------------------------------------------|
--------------7S----12----|--------------------------------------------------|
--------------5S----10----|--------------------------------------10s-12s-10--|
--------------5S----10----|--12-0--0--12-0--0--12-0--0--12-0--0--------------|


   PM PM  PMPM PM  PMPM PM  PMPM PM  PMPM  PMPM
   E  S   S S  S   S S  S   S S  S   S S   S S
------------------------------------------------|
------------------------------------------------|
------------------------------------------------|
------------------------------------------------|
------------------------------------------------|
--12--0--12-0--0--12-0--0--12-0--0--10-0--10-0--|


   PMPM PM  PMPM PM  PMPM PM  PMPM PM
   S S  S   S S  S   S S  S   S S  S   S   S   E
--------------------------------------------------|
--------------------------------------------------|
--------------------------------------------------|
--------------------------------------------------|
--------------------------------------10s-12s-10--|
--12-0--0--12-0--0--12-0--0--12-0--0--------------|


   PM PM  PMPM PM  PMPM PM  PMPM PM  PMPM  PMPM
   E  S   S S  S   S S  S   S S  S   S S   S S
------------------------------------------------|
------------------------------------------------|
------------------------------------------------|
------------------------------------------------|
------------------------------------------------|
--12--0--12-0--0--12-0--0--12-0--0--10-0--10-0--|


   PMPM PM  PMPM PM  PMPM PM  PMPM PM
   S S  S   S S  S   S S  S   S S  S   S   S   E
--------------------------------------------------|
--------------------------------------------------|
--------------------------------------------------|
--------------------------------------------------|
--------------------------------------10s-12s-10--|
--12-0--0--12-0--0--12-0--0--12-0--0--------------|


   PM PM  PMPM PM  PMPM PM  PMPM PM  PMPM  PMPM
   E  S   S S  S   S S  S   S S  S   S S   S S
------------------------------------------------|
------------------------------------------------|
------------------------------------------------|
------------------------------------------------|
------------------------------------------------|
--12--0--12-0--0--12-0--0--12-0--0--10-0--10-0--|


   PMPM PM  PMPM PM  PMPM PM  PMPM PM
   S S  S   S S  S   S S  S   S S  S   S   S   E
--------------------------------------------------|
--------------------------------------------------|
--------------------------------------------------|
--------------------------------------------------|
--------------------------------------10s-12s-10--|
--12-0--0--12-0--0--12-0--0--12-0--0--------------|


   PM PM  PMPM PM  PMPM PM  PMPM PM  PM  PM PM  PM
   E  S   S S  S   S S  S   S S  S   S   S  S   S
--------------------------------------------------|
--------------------------------------------------|
--------------------------------------------------|
--------------------------------------------------|
--------------------------------------------------|
--12--0--12-0--0--12-0--0--12-0--0--12h-13-10s-12-|


   |---6--|  |--6--|  |---6--|  |--6--|  |-----5-----|
   S   S  S  S  S  S  S  S   S  S  S  S  S  S  S  S  S  E    E
--19S-14-17-17-15-14---------------------------------------------|
---------------------17-17S-12-14-15-14-12-14-15-14-12-15~--12\--|
-----------------------------------------------------------------|
-----------------------------------------------------------------|
-----------------------------------------------------------------|
-----------------------------------------------------------------|


   S   S S  S S  E      S   S    S  E   E    E
--12s-15-----------------------------------------|
-------------------------------------------------|
-------------------------------------------------|
-----------14---12-------------------------------|
--------------------14g12-(12)p-10---------------|
-----------------------------------12b--L--(12)--|


               |--6--|  |--6--|
   S  S  S  S  S  S  S  S  S  S  S  S  E    E   S  S
-----------------------------------------------------|
--------------------------------------12b------------|
--------------------------------------12b------------|
--------------------------12-14-15-15------14--12-14-|
--------------12-14-15-15----------------------------|
--12-14-15-15----------------------------------------|


                            |--3--|
   S  S  S   S  S  S  S  S  S  S  S  E   E   E
------------------------------------------------|
------------------------------------------------|
------------------------------------------------|
--15-14-12S-10----------------------------------|
---------------13-12-10-10----------------------|
---------------------------13-12-12-10--12--10--|


   PMPM PM  PMPM PM PM PM PM PM PM PM PM PM PM PM
   S S  S   S S  S  S  S  S  S  S  S  S  S  S  S
--------------------------------------------------|
--------------------------------------------------|
--------------------------------------------------|
--------------------------------------------------|
--------------------------------------------------|
--12-0--0--10-0--0--8--0--0--7--0--0--8--0--7--0--|


  PM PM PM PM PM PM PM PM PM PM PM PM
  S  S  S  S  S  S  S  S  S  S  S  S  E.   S
---------------------------------------------|
---------------------------------------------|
---------------------------------------------|
---------------------------------------------|
---------------------------------------------|
--8--0--0--7--0--0--5--0--0--3--0--0--3~-----|


  |---6--| |---6--| |---6---|   |--6--|  |---6--|  |--6--|  |---3--|
  S  S   S S  S   S S   S   S   S  S  S  S  S   S  S  S  S  S   S  S  S  S
---------------------------------------------------------------------------|
---------------------------------------------------------------------------|
---------------------------------------------------------------------------|
---------------------------------------------------------------------------|
--7h-9h-10-7h-9h-10-8h-10h-11S-13-12-14-15-14S-10-12-13-12-10S-12-14-15-12-|
---------------------------------------------------------------------------|


          PM PM PM PM PM PM       PM PM
   S   S  S  S  S  S  S  S  S  S  S  S    E    E
---------------------------------------------------|
---------------------------------------------------|
---------------------------------------------------|
--14p-12-------------------------------------------|
---------14-12-14-12-------12-10-------------------|
---------------------14-12-------12-10-<>12~---L\--|


                              PM    PM
  |--3--|     |--3--|                       |--3--|
  S  S  S S S S  S  S S  S  S S   S S   E   S  S  S
----------------------------------------------------|
----------------------------------------------------|
----------------------7s-9-12-8--11-7--10\----------|
--------------5h-7s-9-----------------------2s-4h-5-|
----------5-7---------------------------------------|
--3s-5h-7-------------------------------------------|


       PM      PM      PM
  |--6-|  |--6-|  |--3-|     |---3--|  |--3--|
  S  S S  S  S S  S  S S  E  E  E   E  S  S  S E
--------------------------------------------------|
--------------------------------------------------|
--4p-0----3p-0----2p-0----1-----------------------|
-------4-------3-------2-----------------------5--|
---------------------------------------5h-6h-7----|
-----------------------------3--5s--7-------------|


                               PM    PM
  |--3--|     |--3--|
  S  S  S S S S  S  S S  S  S  S  S  S  S   S  E
---------------------------------------------------|
---------------------------------------------------|
----------------------7s-9-12-10-13-11-14p-12-15\--|
--------------5h-7s-9------------------------------|
----------5-7--------------------------------------|
--3s-5h-7------------------------------------------|


      S  S   S  S   S   S  E       S  S   S  S   S   S  E
---------------12h-15p-12-------------------12h-15p-12------|
------------------------------------------------------------|
--------12h-15------------15\--------12h-15------------15\--|
--12g14------------------------12g14------------------------|
------------------------------------------------------------|
------------------------------------------------------------|


                              PM    PM
  |--3--|     |--3--|                       |--3--|
  S  S  S S S S  S  S S  S  S S   S S   E   S  S  S
----------------------------------------------------|
----------------------------------------------------|
----------------------7s-9-12-8--11-7--10\----------|
--------------5h-7s-9-----------------------2s-4h-5-|
----------5-7---------------------------------------|
--3s-5h-7-------------------------------------------|


       PM      PM      PM
  |--6-|  |--6-|  |--3-|     |---3--|  |--3--|
  S  S S  S  S S  S  S S  E  E  E   E  S  S  S E
--------------------------------------------------|
--------------------------------------------------|
--4p-0----3p-0----2p-0----1-----------------------|
-------4-------3-------2-----------------------5--|
---------------------------------------5h-6h-7----|
-----------------------------3--5s--7-------------|


                               PM    PM
  |--3--|     |--3--|
  S  S  S S S S  S  S S  S  S  S  S  S  S   S  E
---------------------------------------------------|
---------------------------------------------------|
----------------------7s-9-12-10-13-11-14p-12-15\--|
--------------5h-7s-9------------------------------|
----------5-7--------------------------------------|
--3s-5h-7------------------------------------------|


   T                 T                 T                 T
   |--6--|  |--6--|  |--6--|  |--6--|  |--6--|  |--6--|  |--6--|  |--6--|
   S  S  S  S  S  S  S  S  S  S  S  S  S  S  S  S  S  S  S  S  S  S  S  S
--------------------------------------------------------------------------|
--19p-8p-7p-3h-7h-8-19p-8p-7p-3h-7h-8-19p-8p-7p-3h-7h-8-19p-8p-7p-3h-7h-8-|
--------------------------------------------------------------------------|
--------------------------------------------------------------------------|
--------------------------------------------------------------------------|
--------------------------------------------------------------------------|


   T                 T                 T                 T
   |--6--|  |--6--|  |--6--|  |--6--|  |--6--|  |--6--|  |--6--|  |--6--|
   S  S  S  S  S  S  S  S  S  S  S  S  S  S  S  S  S  S  S  S  S  S  S  S
--------------------------------------------------------------------------|
--19p-8p-7p-3h-7h-8-19p-8p-7p-3h-7h-8-19p-8p-7p-3h-7h-8-19p-8p-7p-3h-7h-8-|
--------------------------------------------------------------------------|
--------------------------------------------------------------------------|
--------------------------------------------------------------------------|
--------------------------------------------------------------------------|


   T                 T                 T                 T
   |--6--|  |--6--|  |--6--|  |--6--|  |--6--|  |--6--|  |--6--|  |--6--|
   S  S  S  S  S  S  S  S  S  S  S  S  S  S  S  S  S  S  S  S  S  S  S  S
--------------------------------------------------------------------------|
--19p-8p-7p-3h-7h-8-19p-8p-7p-3h-7h-8-19p-8p-7p-3h-7h-8-19p-8p-7p-3h-7h-8-|
--------------------------------------------------------------------------|
--------------------------------------------------------------------------|
--------------------------------------------------------------------------|
--------------------------------------------------------------------------|


   T                 T                 T
   |--6--|  |--6--|  |--6--|  |--6--|  |--3--|
   S  S  S  S  S  S  S  S  S  S  S  S  S  S  S  E  Q
--------------------------------------------------------|
--19p-8p-7p-3h-7h-8-19p-8p-7p-3h-7h-8-19p-8p-7p-3-------|
--------------------------------------------------------|
--------------------------------------------------------|
--------------------------------------------------------|
--------------------------------------------------------|


               PM PM   PM PM PM PM                     PM PM   PM PM
  S  S S S S S S  S  S E  S  S  S  E      S  S S S S S S  S  S E  S  Q
---------------------------------------|----------------------------------|
---------------------------------------|----------------------------------|
---------------------------------------|----------------------------------|
---------------------------------------|-----------------------------5----|
---------------------------------------|-----------------------------5----|
--0h-2-x-x-x-x-0--2--L-2--0--5--5--5b--|--0h-2-x-x-x-x-0--2--L-2--0--3----|


                                              tr            tr
  W                   H        Q     Q        H             H
-------------------|-----------------------|-----------------------------|
-------------------|-----------------------|-----------------------------|
-------------------|-----------------------|-----------------------------|
-------------------|-----------------------|---------------10(11)--------|
-------------------|-----------------------|--9(10)----------------------|
-------------------|----------------/8\----|-----------------------------|


   S   S   S   S  S   S   S   S S   S  S   S   Q
-----------------------------------------------------|
-----------------------------------------------------|
--11h-12p-11h-12-------------------------------------|
-----------------10h-11p-10h-11----------------------|
--------------------------------9h-10p-9h-10---------|
---------------------------------------------/17\----|


  S   S  S S   S S   S S   S S  S S     S  S   S  S
-----------------------9h-12-9-------------------12h-|
-----------------9h-10---------10-9-------12h-13-----|
-----------9s-11--------------------11g14------------|
--------11-------------------------------------------|
--9h-12----------------------------------------------|
-----------------------------------------------------|


   S  S  S   S     S  S   S  S   S  S  S   S  S   S E
--15-12---------------------14h-17-14------------------|
--------13p-12-------14h-15-----------15p-14-17br-L-L--|
---------------14g16-----------------------------------|
-------------------------------------------------------|
-------------------------------------------------------|
-------------------------------------------------------|


   |--6--|  |--6--|  |--6--|   |--6--|  |--6--|  |--6--|  |---6--|  |--6--|
   S  S  S  S  S  S  S  S  S   S  S  S  S  S  S  S  S  S  S   S  S  S  S  S
--14-16-17-16-14-----------------15-17-18-17-15-----------------16-18-19-18-|
-----------------17-16-14-16S-17----------------18-17-15-17S-18-------------|
----------------------------------------------------------------------------|
----------------------------------------------------------------------------|
----------------------------------------------------------------------------|
----------------------------------------------------------------------------|


   |--6--|  |---6--|  |--6--|  |--6--|  |--6--|   |--6--|
   S  S  S  S  S   S  S  S  S  S  S  S  S  S  S   S  S  S  T  T  T   T  T  T  T
--16-----------------17-19-20-19-17-----------------18-20-21-20-18S-16-19-18-16--|S
-----19-18-16-18S-19----------------20-19-17-19S-20------------------------------|
---------------------------------------------------------------------------------|
---------------------------------------------------------------------------------|
---------------------------------------------------------------------------------|
---------------------------------------------------------------------------------|


   |--6--|  |--6--|  |--3--|        |--6--|  |--6--|  |--3--|
   S  S  S  S  S  S  S  S  S  S  S  S  S  S  S  S  S  S  S  S  E
--14-16-17-17-16-14----------------14-16-17-17-16-14--------------|
--------------------17-16-14-17-17-------------------17-16-14-17--|
------------------------------------------------------------------|
------------------------------------------------------------------|
------------------------------------------------------------------|
------------------------------------------------------------------|


  H         Q.      E
-----------------------|
--Lb--------L~---------|
-----------------------|
-----------------------|
-----------------------|
-----------------------|


   T      T                      T      T                      T      T
   T   T  T   T   X   X   X   X  T   T  T   T   X   X   X   X  T   T  T   T   X
--19p-17-19p-17p-16p-15p-14h-17-19p-17-19p-17p-16p-15p-14h-17-19p-17-19p-17p-16--|p
---------------------------------------------------------------------------------|
---------------------------------------------------------------------------------|
---------------------------------------------------------------------------------|
---------------------------------------------------------------------------------|
---------------------------------------------------------------------------------|


   T      T                      T      T                      T      T
   T   T  T   T   X   X   X   X  T   T  T   T   X   X   X   X  T   T  T   T   X
--21p-17-21p-17p-16p-15p-14h-17-21p-17-21p-17p-16p-15p-14h-17-21p-17-21p-17p-16--|p
---------------------------------------------------------------------------------|
---------------------------------------------------------------------------------|
---------------------------------------------------------------------------------|
---------------------------------------------------------------------------------|
---------------------------------------------------------------------------------|


   T      T                      T      T                      T      T
   T   T  T   T   X   X   X   X  T   T  T   T   X   X   X   X  T   T  T   T   X
--22p-19-22p-19p-17p-16p-14h-19-21p-19-21p-19p-17p-16p-14h-19-22p-19-22p-19p-17--|p
---------------------------------------------------------------------------------|
---------------------------------------------------------------------------------|
---------------------------------------------------------------------------------|
---------------------------------------------------------------------------------|
---------------------------------------------------------------------------------|


   T      T                      T      T                      T      T
   T   T  T   T   X   X   X   X  T   T  T   T   X   X   X   X  T   T  T   T   X
--21p-19-21p-19p-17p-16p-14h-19-21p-19-21p-19p-17p-16p-14h-19-21p-19-21p-19p-17--|p
---------------------------------------------------------------------------------|
---------------------------------------------------------------------------------|
---------------------------------------------------------------------------------|
---------------------------------------------------------------------------------|
---------------------------------------------------------------------------------|


   T      T                      T      T                      T      T
   T   T  T   T   X   X   X   X  T   T  T   T   X   X   X   X  T   T  T   T   X
--19p-17-19p-17p-16p-15p-14h-17-19p-17-19p-17p-16p-15p-14h-17-19p-17-19p-17p-16--|p
---------------------------------------------------------------------------------|
---------------------------------------------------------------------------------|
---------------------------------------------------------------------------------|
---------------------------------------------------------------------------------|
---------------------------------------------------------------------------------|


   T      T                      T      T                      T      T
   T   T  T   T   X   X   X   X  T   T  T   T   X   X   X   X  T   T  T   T   X
--21p-17-21p-17p-16p-15p-14h-17-21p-17-21p-17p-16p-15p-14h-17-21p-17-21p-17p-16--|p
---------------------------------------------------------------------------------|
---------------------------------------------------------------------------------|
---------------------------------------------------------------------------------|
---------------------------------------------------------------------------------|
---------------------------------------------------------------------------------|


   T      T                      T      T                      T      T
   T   T  T   T   X   X   X   X  T   T  T   T   X   X   X   X  T   T  T   T   X
--22p-19-22p-19p-17p-16p-14h-19-21p-19-21p-19p-17p-16p-14h-19-22p-19-22p-19p-17--|p
---------------------------------------------------------------------------------|
---------------------------------------------------------------------------------|
---------------------------------------------------------------------------------|
---------------------------------------------------------------------------------|
---------------------------------------------------------------------------------|


   T      T                      T      T                      T      T
   T   T  T   T   X   X   X   X  T   T  T   T   X   X   X   X  T   T  T   T   X
--26p-19-26p-19p-17p-16p-14h-19-26p-19-26p-19p-17p-16p-14h-19-26p-19-26p-19p-17--|p
---------------------------------------------------------------------------------|
---------------------------------------------------------------------------------|
---------------------------------------------------------------------------------|
---------------------------------------------------------------------------------|
---------------------------------------------------------------------------------|


   PM PM PM      PM PM PM      PM PM PM      PM PM PM
   |--3--|       |--3--|       |--3--|       |--3--|
   S  S  S  S S  S  S  S  S S  S  S  S  S S  S  S  S  S S
----------------------------------------------------------|
-----------14------------14------------14------------14---|
----------------------------------------------------------|
--14-17-17------14-17-17------14-17-17------14-17-17------|
----------------------------------------------------------|
----------------------------------------------------------|


           PM PM PM PM PM
   S   E   S  S  S  S  S  E   E    Q
-----------------------------------------|
-------------------------14--14b---------|
--16br-L--14-16-14-------14--14b---------|
-------------------16-14----------16\----|
-----------------------------------------|
-----------------------------------------|


    S S   S S   S  S  E     S S   S S   S  S  E
--------------------------------------------------|
------------------------------------9h-12p-9------|
------------9h-12p-9----------9h-10----------10\--|
------9h-10----------10\--/11---------------------|
--/11---------------------------------------------|
--------------------------------------------------|


                     |--3--|  |--6--|  |--6--|  |--6--|  |--6--|
   S S  S   S S  S   S  S  S  S  S  S  S  S  S  S  S  S  S  S  S
--------------7h-9h-10p-9p-7-------------------------------------|
-----7h-8h-10----------------10p-9p-7----------------------------|
--/9----------------------------------10p-9p-7-------------------|
-----------------------------------------------10p-9p-7----------|
--------------------------------------------------------10p-9p-7-|
-----------------------------------------------------------------|


                                   PM PM PM PM PM PM
  Q    E  E   E  E      E   E      S  S  S  S  S  S  E  Q      E   S  S
-------------------------------|----------------------------------------|
-------------------------------|--------------------14--Lb--------------|
-------------------------------|--------------------14--Lb--------------|
----------7b--L--L--10g16--14--|--16-16-16-16-14-14-----------16--14p-0-|
--9----7-----------------------|----------------------------------------|
-------------------------------|----------------------------------------|


   |--6--|  |--6--|  |--3--|        |--6--|  |--6--|  |--6--|  |--6--|
   S  S  S  S  S  S  S  S  S  S  S  S  S  S  S  S  S  S  S  S  S  S  S
-----------------------------------------------------------------------|
--14-16-17-17-16-14----------------14-16-17-16-14----------------14-16-|
--------------------17-16-14-17-17----------------17-16-14-16-17-------|
-----------------------------------------------------------------------|
-----------------------------------------------------------------------|
-----------------------------------------------------------------------|


   |--6--|  |--6--|  |--6--|   |--6--|  |---6--|  |---6--|  |--3--|
   S  S  S  S  S  S  S  S  S   S  S  S  S   S  S  S  S   S  S  S  S  S  S
--------------------------------------------------------------------------|
--17-16-14----------------------------------------------------------------|
-----------17-15-13-15-16-13S-12-14-15-12S-11-13-14-11S-10-12-13-10-10s-7-|
--------------------------------------------------------------------------|
--------------------------------------------------------------------------|
--------------------------------------------------------------------------|


                   T                              T
          |--3--|  |---3--|              |--3--|  |---3--|
    S S   S S   S  S   S  S  S  S  S S   S S   S  S   S  S  S  S
------------9h-12-14p-12p-9----------------9h-12-16p-12p-9-------|
------9h-10-----------------10p-9----9h-10-----------------10p-9-|
--/11-----------------------------11-----------------------------|
-----------------------------------------------------------------|
-----------------------------------------------------------------|
-----------------------------------------------------------------|


                   T                              T
          |--3--|  |---3--|              |--3--|  |---3--|
    S S   S S   S  S   S  S  S  S  S S   S S   S  S   S  S  S  S
------------9h-12-17p-12p-9----------------9h-12-19p-12p-9-------|
------9h-10-----------------10p-9----9h-10-----------------10p-9-|
--/11-----------------------------11-----------------------------|
-----------------------------------------------------------------|
-----------------------------------------------------------------|
-----------------------------------------------------------------|


                   T                              T
          |--3--|  |---3--|              |--3--|  |---3--|
    S S   S S   S  S   S  S  S  S  S S   S S   S  S   S  S  S  S
------------9h-12-14p-12p-9----------------9h-12-16p-12p-9-------|
------9h-10-----------------10p-9----9h-10-----------------10p-9-|
--/11-----------------------------11-----------------------------|
-----------------------------------------------------------------|
-----------------------------------------------------------------|
-----------------------------------------------------------------|


   T             T             T             T             T             T
   T   T   T  T  T   T   T  T  T   T   T  T  T   T   T  T  T   T   T  T  T   T
--17p-12p-10p-9---------------16p-12p-10p-9---------------14p-12p-10p-9---------|
----------------17p-12p-10p-9---------------16p-12p-10p-9---------------14p-12p-|
--------------------------------------------------------------------------------|
--------------------------------------------------------------------------------|
--------------------------------------------------------------------------------|
--------------------------------------------------------------------------------|


                   T                              T
          |--3--|  |---3--|              |--3--|  |---3--|
    S S   S S   S  S   S  S  S  S  S S   S S   S  S   S  S  S  S
------------9h-12-14p-12p-9----------------9h-12-16p-12p-9-------|
------9h-10-----------------10p-9----9h-10-----------------10p-9-|
--/11-----------------------------11-----------------------------|
-----------------------------------------------------------------|
-----------------------------------------------------------------|
-----------------------------------------------------------------|


                   T                              T
          |--3--|  |---3--|              |--3--|  |---3--|
    S S   S S   S  S   S  S  S  S  S S   S S   S  S   S  S  S  S
------------9h-12-17p-12p-9----------------9h-12-19p-12p-9-------|
------9h-10-----------------10p-9----9h-10-----------------10p-9-|
--/11-----------------------------11-----------------------------|
-----------------------------------------------------------------|
-----------------------------------------------------------------|
-----------------------------------------------------------------|


    E.   S   E  E    E   E    E    E       E.     S   E  E    E   E    Q
--/19~---Lb~-L--Lb~--L--19~--19~--19~--|--19b~----Lb~-L--Lb~--L--19~--19~----|
---------------------------------------|-------------------------------------|
---------------------------------------|-------------------------------------|
---------------------------------------|-------------------------------------|
---------------------------------------|-------------------------------------|
---------------------------------------|-------------------------------------|


  Banjo rolls
  PM          PM PM PM PM PM PM PM PM PM PM PM PM PM PM PM PM PM PM PM PM PM PM
  |-------6------|  |--6--|  |--6--|  |--6--|  |--6--|  |--6--|  |--6--|  |--6--
  S           S  S  S  S  S  S  S  S  S  S  S  S  S  S  S  S  S  S  S  S  S  S
--7p----------0-----7p-0-----7p-0-----7p-0-----7p-0-----7p-0-----7p-0-----7p-0--|
--------------------------------------------------------------------------------|
-----------------9--------9--------9--------9--------9--------9--------9--------|
--------------------------------------------------------------------------------|
--------------------------------------------------------------------------------|
--------------------------------------------------------------------------------|


  PM PM PM PM PM PM PM PM PM PM PM PM PM PM PM PM PM PM PM PM PM PM PM PM
  |--6--|  |--6--|  |--6--|  |--6--|  |--6--|  |--6--|  |--6--|  |--6--|
  S  S  S  S  S  S  S  S  S  S  S  S  S  S  S  S  S  S  S  S  S  S  S  S
--8p-0-----8p-0-----8p-0-----8p-0-----6p-0-----6p-0-----6p-0-----6p-0-----|
--------------------------------------------------------------------------|
--------9--------9--------9--------9--------9--------9--------9--------9--|
--------------------------------------------------------------------------|
--------------------------------------------------------------------------|
--------------------------------------------------------------------------|


  PM PM PM PM PM PM PM PM PM PM PM PM PM PM PM PM PM PM PM PM PM PM PM PM
  |--6--|  |--6--|  |--6--|  |--6--|  |--6--|  |--6--|  |--6--|  |--6--|
  S  S  S  S  S  S  S  S  S  S  S  S  S  S  S  S  S  S  S  S  S  S  S  S
--7p-0-----7p-0-----7p-0-----7p-0-----7p-0-----7p-0-----7p-0-----7p-0-----|
--------------------------------------------------------------------------|
--------9--------9--------9--------9--------9--------9--------9--------9--|
--------------------------------------------------------------------------|
--------------------------------------------------------------------------|
--------------------------------------------------------------------------|


  PM PM PM PM PM PM PM PM PM PM PM PM PM PM PM PM PM PM PM PM PM PM PM PM
  |--6--|  |--6--|  |--6--|  |--6--|  |--6--|  |--6--|  |--6--|  |--6--|
  S  S  S  S  S  S  S  S  S  S  S  S  S  S  S  S  S  S  S  S  S  S  S  S
--------------------------------------------------------------------------|
--8p-0-----8p-0-----8p-0-----8p-0-----7p-0-----7p-0-----7p-0-----7p-0-----|
--------9--------9--------9--------9--------9--------9--------9--------9--|
--------------------------------------------------------------------------|
--------------------------------------------------------------------------|
--------------------------------------------------------------------------|


  PM PM PM PM PM PM PM PM PM PM PM PM PM PM PM PM PM PM PM PM PM PM PM PM
  |--6--|  |--6--|  |--6--|  |--6--|  |--6--|  |--6--|  |--6--|  |--6--|
  S  S  S  S  S  S  S  S  S  S  S  S  S  S  S  S  S  S  S  S  S  S  S  S
--7p-0-----7p-0-----7p-0-----7p-0-----7p-0-----7p-0-----7p-0-----7p-0-----|
--------------------------------------------------------------------------|
--------9--------9--------9--------9--------9--------9--------9--------9--|
--------------------------------------------------------------------------|
--------------------------------------------------------------------------|
--------------------------------------------------------------------------|


  PM PM PM PM PM PM PM PM PM PM PM
  |--6--|  |--6--|  |--6--|  |--6--|
  S  S  S  S  S  S  S  S  S  S  S  S E.  S   E  E
--8p-0-----8p-0-----8p-0-----8p-0----6---Ls-12-----|
-------------------------------------5---L/--------|
--------9--------9--------9------------------------|
---------------------------------------------------|
---------------------------------------------------|
---------------------------------------------------|


  T   T   T   T  T  T   T  T  E  S S T  T   T  T  T  T  T  T E  S S
--8h-10h-12p-10p-8-------------------7h-8h-10p-8p-7-----------------|
-------------------12p-10p-8s-7---------------------10p-8p-7--------|
---------------------------------9---------------------------9--7---|
--------------------------------------------------------------------|
--------------------------------------------------------------------|
--------------------------------------------------------------------|


  |--6--|  |--6-|  |--6-|  |--6-|  |--3--|
  S  S  S  S  S S  S S  S  S S  S  S  S  S S  S E    E
--5h-7h-8p-7p-5--------------5h-7h-8p-7p-5---------------|
----------------8p-7-5h-7h-8---------------8p-7-8s--10\--|
---------------------------------------------------------|
---------------------------------------------------------|
---------------------------------------------------------|
---------------------------------------------------------|


                              PM    PM
  |--3--|     |--3--|                       |--3--|
  S  S  S S S S  S  S S  S  S S   S S   E   S  S  S
----------------------------------------------------|
----------------------------------------------------|
----------------------7s-9-12-8--11-7--10\----------|
--------------5h-7s-9-----------------------2s-4h-5-|
----------5-7---------------------------------------|
--3s-5h-7-------------------------------------------|


       PM      PM      PM
  |--6-|  |--6-|  |--3-|     |---3--|  |--3--|
  S  S S  S  S S  S  S S  E  E  E   E  S  S  S E
--------------------------------------------------|
--------------------------------------------------|
--4p-0----3p-0----2p-0----1-----------------------|
-------4-------3-------2-----------------------5--|
---------------------------------------5h-6h-7----|
-----------------------------3--5s--7-------------|


                               PM    PM
  |--3--|     |--3--|
  S  S  S S S S  S  S S  S  S  S  S  S  S   S  E
---------------------------------------------------|
---------------------------------------------------|
----------------------7s-9-12-10-13-11-14p-12-15\--|
--------------5h-7s-9------------------------------|
----------5-7--------------------------------------|
--3s-5h-7------------------------------------------|


      S  S   S  S   S   S  E       S  S   S  S   S   S  E
---------------12h-15p-12-------------------12h-15p-12------|
------------------------------------------------------------|
--------12h-15------------15\--------12h-15------------15\--|
--12g14------------------------12g14------------------------|
------------------------------------------------------------|
------------------------------------------------------------|


                              PM    PM
  |--3--|     |--3--|                       |--3--|
  S  S  S S S S  S  S S  S  S S   S S   E   S  S  S
----------------------------------------------------|
----------------------------------------------------|
----------------------7s-9-12-8--11-7--10\----------|
--------------5h-7s-9-----------------------2s-4h-5-|
----------5-7---------------------------------------|
--3s-5h-7-------------------------------------------|


       PM      PM      PM
  |--6-|  |--6-|  |--3-|     |---3--|  |--3--|
  S  S S  S  S S  S  S S  E  E  E   E  S  S  S E
--------------------------------------------------|
--------------------------------------------------|
--4p-0----3p-0----2p-0----1-----------------------|
-------4-------3-------2-----------------------5--|
---------------------------------------5h-6h-7----|
-----------------------------3--5s--7-------------|


                               PM    PM
  |--3--|     |--3--|
  S  S  S S S S  S  S S  S  S  S  S  S  S   S  E
---------------------------------------------------|
---------------------------------------------------|
----------------------7s-9-12-10-13-11-14p-12-15\--|
--------------5h-7s-9------------------------------|
----------5-7--------------------------------------|
--3s-5h-7------------------------------------------|


                      SH
     E.   S E   S S   Q.     E      Q     E  E   Q    E  E
---------------------------------|---------------------------|
---------------------------------|---------------------------|
--9g12---11----10---<>7------Lb--|--L\----9--8~--L----8--7~--|
---------------------------------|---------------------------|
---------------------------------|---------------------------|
---------------------------------|---------------------------|


  Q    E  E  Q      Q       E  E  E  E   Q    E  E
-------------------------|---------------------------|
-------------------------|---------------------------|
--L----7--6--7S----10----|--9--9--9--8~--L----8--7~--|
-------------7S----10----|--9--9---------------------|
-------------5S-----8----|--7--7---------------------|
-------------5S-----8----|--7--7---------------------|


  Q    E  E  Q      Q        E  E    E   E   Q     E   E
--------------------------|--------------------------------|
--------------------------|--------------------------------|
--L----7--6--7S----12S----|--9--9--/12--11~--L----11--10~--|
-------------7S----12S----|--9--9--------------------------|
-------------5S----10S----|--7--7--------------------------|
-------------5S----10S----|--7--7--------------------------|


  Q     E  E  Q      Q       E  E    E   E   Q     E   E
--------------------------|--------------------------------|
--------------------------|--------------------------------|
--L----10--9--7S----10----|--9--9--/12--11~--L----11--10~--|
--------------7S----10----|--9--9--------------------------|
--------------5S-----8----|--7--7--------------------------|
--------------5S-----8----|--7--7--------------------------|


  Q     E  E  Q      Q        E    E  Q     E  E  S  S S  S
--------------------------|-----------------------7----------|
--------------------------|--10br--L--L~----L-------10-8p-7~-|
--L----10--9--7S----12----|----------------------------------|
--------------7S----12----|----------------------------------|
--------------5S----10----|----------------------------------|
--------------5S----10----|----------------------------------|


                                                     |-3-|
  E  S  S S S S S  S  S S  S S  S S  S    Q     S  S S S S S  S S S S S S S
----------------7-10p-7----------------|------------------------5-9-L-7-5----|
--L--8p-7---7-8---------8p-7-----------|-------------------6s-7-----------7S-|
----------9------------------9p-7------|---------------4-7-------------------|
----------------------------------9p-7-|--------7p-4-5-----------------------|
---------------------------------------|--9~---------------------------------|
---------------------------------------|-------------------------------------|


  |--3-|
  S S  S S S  S S  S S   S  S S S   E    S S
----5p-2---3p-2-------------------------------|
--5------5------5p-3---3g5p-3-----------------|
---------------------4--------4-5-5g6--5g2-4~-|
----------------------------------------------|
----------------------------------------------|
----------------------------------------------|


                                                    |--3--|   |--3--|
  E.   S S  S S S S  S S  S S S S S     Q    E   E  E  E  E   E  E  E
-------------------------------------|---------------------------------|
-------------------------------------|---------------------------------|
--Lp---2-----------------------------|------------------------------6--|
---------5p-2---4-2p-0---------------|--------------4--7---------7-----|
--------------5--------2p-0-----2-4~-|--L----5s--7--------7S--9--------|
----------------------------2-5------|---------------------------------|


                                      |-3-|
  S  S S  S  S  S S  S  S S S  S S  S S S S
-------9p-7----------------------7----------|
----10------10p-7---10p-7---8p-7---10-7-----|
--9---------------9-------9-------------9-7-|
--------------------------------------------|
--------------------------------------------|
--------------------------------------------|


   S  S S S  S  S  S S  S  S S S  S  S S  S
--------------------------------------------|
--------------------------------------------|
--11p-9-7-----------------------------------|
----------9p-7-11p-9-7-11p-9-7--------------|
-------------------------------9S-7p-5------|
---------------------------------------7p-0-|


          |--3--|   |---3--|
  E  E    E  E  E   E   E  E   S  S  S  S
------------------------------------------|
---------------------------------------12-|
---------------------------------12-14----|
---------------------------9--14----------|
----------------5s--7--10-----------------|
--0--0--3g5--7----------------------------|


   E   S   S S     S E   Q     E   S  T  T
-------------------------------------------|
--15--17s-19---15g17----15~----L\-------15-|
-------------------------------------17----|
-------------------------------------------|
-------------------------------------------|
-------------------------------------------|


   |---6--|  |---6--|  |---6--|  |---6--|   |---6--|  |---6--|  |------5-----|
   S  S   S  S  S   S  S   S  S  S   S  S   S  S   S  S  S   S  S  S  S   S  S
--12--------------------------------------------------------------12-----------|
-------------------------------------------------------------------------------|
-----16p-14----16p-14------------------------------------------------16p-14----|
------------17--------17p-14----16p-14--------17p-14----16p-14--------------17-|
-----------------------------17--------17p-14--------17--------17--------------|
-------------------------------------------------------------------------------|


   |----3---|    |---3---|    |----3---|   |----3----|
   E    E   E    E   E   E    E   E    E   E    E    E
---------------------------------------------------------|
---------------------------------------------------------|
--16p--14------------------------------------------------|
-----------17p--14------16p--14--------------------------|
--------------------17-----------17p--14-----------------|
------------------------------------------17p--15s--14h--|


                                                              PH
   |-----3-----|     |-----3-----|        |-----3-----|
   Q     Q     Q     Q     Q     Q        Q     Q     Q       Q     Q
--------------------------------------|--------17----21----<>21~---------|
--------------------------14----------|--17------------------------------|
--------------14----16----------14----|----------------------------------|
--------------------------------------|----------------------------------|
--------16----------------------------|----------------------------------|
---L----------------------------------|----------------------------------|


  E   Q.      Q    E  S  S     E    E      E   E  S    S S S  S  E   S
----------------------------|------------------------------------------|
----------------------------|------------------------------------------|
----------------------------|------------------------------------------|
----------------------------|------------------------------------------|
-----12b------L----L--L-12b-|--Lpb--Lpbr--12b--L--Lbrb-L-L-L-10--------|
----------------------------|-----------------------------------12\----|


   |---3---|   |---3---|   |---3---|   |---3---|
   E   E   E   E   E   E   E   E   E   E   E   E
----------12--15----------12--14----------12--15--|
------13--------------13--------------13----------|
--12--------------12--------------12--------------|
--------------------------------------------------|
--------------------------------------------------|
--------------------------------------------------|


   |---3---|   |---3---|   |---3---|   |----3---|
   E   E   E   E   E   E   E   E   E   E    E   E
----------14--17----------14--15---------------12--|
------15--------------15--------------17s--15------|
--14--------------14--------------14---------------|
---------------------------------------------------|
---------------------------------------------------|
---------------------------------------------------|


  |--3--|   |--3--|  |--3--|   |--3--|
  E  E  E   E  E  E  E  E  E   E  E  E
--7--------------------------------------|
-----8-----10--8-------------------------|
--------9---------9--7-----9p--7--9--7h--|
------------------------9----------------|
-----------------------------------------|
-----------------------------------------|


  |--3--|   |--3--|
  E  E  E   E  E  E  S S  S S  S S  E      E   Q.       E   Q      S   S
---------------------------------------|---0---0------------0------------|
---------------------------------------|--12--12-------12--12-----12S-13-|
--4-----7p--4--------------------------|------14b----------14b-----------|
-----7---------7--5----7p-5------------|---------------------------------|
---------------------7------7p-5-------|---------------------------------|
---------------------------------7p-5--|---------------------------------|


   Q.       E   Q.       E      H.             S  S  S   S
---0--------0---0--------0---|--L~---------------15-19p-15-|
--13-------13--13-------15---|--L~------------17-----------|
--15b----------15b------17b--|--L~-------------------------|
-----------------------------|-----------------------------|
-----------------------------|-----------------------------|
-----------------------------|-----------------------------|


                                     |--3--|
   S   S  S   S  S   S  S   S  S  S  S  S  S  S  S  E
--14p-12--------12p-10---------------------------------|
---------15p-12--------12p-10--------------------------|
------------------------------12p-9--------------------|
------------------------------------12p-9--------------|
------------------------------------------12-10p-9s-7--|
-------------------------------------------------------|


    PH
               |--3--|
    Q.      E  E  E  E   S  S S  S
-----------------------------------|
-----------------------------------|
------------------------------7S-9-|
---------------------5h--7s-9------|
--<>7~---------5--7----------------|
-----------------------------------|


   E    S  S  S  S   S  S  S  E    T   T  S  S   S  S
-------------10-12p-10-------------------10-12p-10----|
-------10-12-----------12-10------10h-12-----------12-|
--12b------------------------12b----------------------|
------------------------------------------------------|
------------------------------------------------------|
------------------------------------------------------|


          |--3--|
   S  S   S  S  S  S   S  S  S  S   S  S   S  S   S  S  S
---------------14-15p-14----15-17p-15-19p-15--------------|
--10-----10-12-----------17------------------19p-17-15-19-|
-----12b--------------------------------------------------|
----------------------------------------------------------|
----------------------------------------------------------|
----------------------------------------------------------|


                                             |---3--|
   S  S  S  S  S   S S  S  S   S S  S   S S  S   S  S
---------------------------------0--------0-19p-15p-0-|
--17-15----17-17p-15---17-17p-15---17p-15-------------|
--------16--------------------------------------------|
------------------------------------------------------|
------------------------------------------------------|
------------------------------------------------------|


  S  S   S S  S   S S  S   S S  S   S S  S   S S
--0--------0--------0--------0--------0--------0-|
----17p-15---15p-12---12p-10---14p-12---15p-12---|
-------------------------------------------------|
-------------------------------------------------|
-------------------------------------------------|
-------------------------------------------------|


                |---3---|
   S   S  S  S  E   E   E   S   S  S  S S S S T  T
-------------------10p--8--11p-10p-8s-7-------------|
--12p-10-------12-----------------------8-----7h-8h-|
------------12----------------------------8---------|
---------13---------------------------------7-------|
----------------------------------------------------|
----------------------------------------------------|


  S S S S  S S S S S  S  S  S S  S  S S
----------------------------------------|
--7-------------------------------------|
----9-8-7s-5---7-5-8p-7p-5s-4---------7-|
-------------7----------------7p-4s-5---|
----------------------------------------|
----------------------------------------|


    S  S  S  S  S S S  S S  S S  S S  S E
-------------------------------------------|
--5g7-10S-8p-7p-5---7p-5-------------------|
------------------7------7p-4--------------|
------------------------------7p-5---------|
-----------------------------------7p-5----|
----------------------------------------7--|


       |--3--|                    |---3--|
  S  S S   S S   S  S  S S  S   S S   S  S   S   S  S S
---------------------------------------------------------|
----------------------------------------12s-12s-13-------|
-------------9s-10s-9-------------9h-12------------12-9/-|
-------7h-10----------10-7S-9h-10------------------------|
--7h-8---------------------------------------------------|
--0------------------------------------------------------|


          |---3--|                        |---3--|
   S   S  S   S  S   S   S  S   S  S   S  S   S  S   S   S  S   S
------------------------------------------------15s-17s-15---------|
----------------15s-17s-15---------------12h-15------------15p-12\-|
---------12h-15------------15p-12-12h-13---------------------------|
--12h-13-----------------------------------------------------------|
-------------------------------------------------------------------|
-------------------------------------------------------------------|


       |--3--|                    |---3--|
  S  S S   S S   S  S  S S  S   S S   S  S   S   S  S  S
----------------------------------------------------------|
----------------------------------------12s-14s-13--------|
-------------9s-10s-9-------------9h-12------------12p-9\-|
-------7h-10----------10-7S-9h-10-------------------------|
--7h-8----------------------------------------------------|
----------------------------------------------------------|


        |--3-|   |--6--|   |---6--|
  S   S S S  S   S  S  S   S  S   S   S  S  S  S  E   E
-----------------------------10h-12s-15-12-------17\-----|
----------------------10h-12---------------15-12---------|
-------------------11------------------------------------|
----------7s-9h-12---------------------------------------|
--------9------------------------------------------------|
--7h-10--------------------------------------------------|


       |--3--|                    |---3--|
  S  S S   S S   S  S  S S  S   S S   S  S   S   S  S  S
----------------------------------------------------------|
----------------------------------------12s-14s-13--------|
-------------9s-10s-9-------------9h-12------------12p-9/-|
-------7h-10----------10-7S-9h-10-------------------------|
--7h-8----------------------------------------------------|
----------------------------------------------------------|


          |---3--|                        |---3--|
   S   S  S   S  S   S   S  S   S  S   S  S   S  S   S   S  S   S
------------------------------------------------15s-17s-15--------|
----------------15s-17s-15---------------12h-15------------15p-12-|
---------12h-15------------15p-12-12h-13--------------------------|
--12h-13----------------------------------------------------------|
------------------------------------------------------------------|
------------------------------------------------------------------|


      E   E   E   E   Q      E  E
---------15--17--15--17b~----L--L--|
--14g17----------------------------|
-----------------------------------|
-----------------------------------|
-----------------------------------|
-----------------------------------|


         |--3--|         |--3--|
   S  S  S  S  S   S  S  S  S  S  S  S  S  S  E   E
--15-16-17-16-15\-------------------------------------|
------------------12-14-15-14-12----------------------|
---------------------------------15-14-12-12----------|
---------------------------------------------14--12\--|
------------------------------------------------------|
------------------------------------------------------|


  T   T  T T T  S.  T   T  T  T  T   S.  T   T  T  T  T   S. T   T  T T T  S.
------------------------------------------------------------------------------|
------------------------------------------------------------------------------|
-------------7h-9/--------------10h-12/--------------12h-14\------------7h-9/-|
-----------9-----------------12-------------------14------------------9-------|
--7h-10-10---------10h-13-13------------12h-15-15------------7h-10-10---------|
------------------------------------------------------------------------------|


   T   T  T  T  T   S.  T   T  T  T  T   S.  S S  E   E   S  S
---------------------------------------------------------------|
---------------------------------------------------------------|
---------------10h-12/--------------12h-14br-L-L-12------------|
------------12-------------------14------------------14--12S-7-|
--10h-13-13------------12h-15-15-------------------------------|
---------------------------------------------------------------|


  T   T  T T T  S.  T   T  T  T  T   S.  S S  E    E    E
------------------------------------------------------------|
--------------------------------------------------15br--Lb--|
-------------7h-9/--------------10h-12br-L-L-10/------------|
-----------9-----------------12-----------------------------|
--7h-10-10---------10h-13-13--------------------------------|
------------------------------------------------------------|


   |--6--|  |--6--|  |--6--|  |--6--|  |--6--|  |--6--|  |-----5-----|
   S  S  S  S  S  S  S  S  S  S  S  S  S  S  S  S  S  S  S  S  S  S  S
--15-16-17-16-15-------------------------------------------------------|
-----------------17-15-14-16-14-13-14-15-13-12-13-14-13-12-------------|
-----------------------------------------------------------14-12-11-12-|
-----------------------------------------------------------------------|
-----------------------------------------------------------------------|
-----------------------------------------------------------------------|


   |--6--|  |--6-|  |-----5----|   |--6--|  |---6--|  |------5-----|
   S  S  S  S  S S  S  S S  S  S   S  S  S  S   S  S  S  S   S  S  S
---------------------------------------------------------------------|
---------------------------------------------------------------------|
--13-11-10-11-12-9-10-11-9-10-11S-12-10-11-12S-13-11-12-13S-14-12-13-|
---------------------------------------------------------------------|
---------------------------------------------------------------------|
---------------------------------------------------------------------|


                      \6/          \1/                     \1/
         |---3---|
   Q     E    E  E    Q.     E     Q    E  E  Q.     E     H        Q.     E
--------------------------------|-----------------------|---------------------|
--------------------------------|-----------------------|--0--------L------L--|
--14b----LS--12--9--------------|--1----L--L--L------L--|---------------------|
--------------------------------|-----------------------|---------------------|
--------------------------------|-----------------------|---------------------|
--------------------<>9------L--|-----------------------|---------------------|


   E    S  S  S  S  E    S  S  S  S  E    S  S
-----------------------------------------------|
-----------------------------------------------|
--14br--L-12-------14br--L-12-------14br--L-12-|
-------------14-12------------14-12------------|
-----------------------------------------------|
-----------------------------------------------|


     PM  PMPM  PMPM  PMPM  PMPM  PMPM  PMPM  PMPM
   S S   S S   S S   S S   S S   S S   S S   S S
--------------------------------------------------|
--------------------------------------------------|
--------------------------------------------------|
--14-0--12-0--12-0--12-0--12-0--12-0--13-0--13-0--|
--------------------------------------------------|
--------------------------------------------------|


   E    S  S  S  S  E    S  S  S  S  E    S  S
-----------------------------------------------|
-----------------------------------------------|
--14br--L-12-------14br--L-12-------14br--L-12-|
-------------14-12------------14-12------------|
-----------------------------------------------|
-----------------------------------------------|


     PM  PMPM  PMPM  PMPM  PMPM  PMPM
   S S   S S   S S   S S   S S   S S   E   E
----------------------------------------------|
--------------------------------------15b-----|
----------------------------------------------|
--14-0--12-0--12-0--12-0--12-0--13-0----------|
----------------------------------------------|
----------------------------------------------|


   E    S  S  S  S  E    S  S  S  S  E    S  S
-----------------------------------------------|
-----------------------------------------------|
--14br--L-12-------14br--L-12-------14br--L-12-|
-------------14-12------------14-12------------|
-----------------------------------------------|
-----------------------------------------------|


     PM  PMPM  PMPM  PMPM  PMPM  PMPM  PMPM  PMPM
   S S   S S   S S   S S   S S   S S   S S   S S      H          H
--------------------------------------------------|--12---------12---------|
--------------------------------------------------|--15b--------15b--------|
--------------------------------------------------|------------------------|
--14-0--12-0--12-0--12-0--12-0--12-0--13-0--13-0--|------------------------|
--------------------------------------------------|------------------------|
--------------------------------------------------|------------------------|


   E.    S  E   E    Q.      E
--12----12--L--12---12-------L--|
---Lb----Lb-L---Lb---Lb---------|
--------------------------------|
--------------------------------|
--------------------------------|
--------------------------------|


   |--6--|  |--6--|  |-----5-----|  |--6--|  |--6--|  |-----5-----|
   S  S  S  S  S  S  S  S  S  S  S  S  S  S  S  S  S  S  S  S  S  S
-----------------12-14-15-15-14-12----------------------------------|
--12-14-15-15-14-------------------15-15-13-12----------------------|
-----------------------------------------------15-15-13-12----------|
-----------------------------------------------------------15-13-12-|
--------------------------------------------------------------------|
--------------------------------------------------------------------|


   |--6--|  |--6--|  |--6--|  |--6--|  |--6--|  |--6--|  |-----5-----|
   S  S  S  S  S  S  S  S  S  S  S  S  S  S  S  S  S  S  S  S  S  S  S
-----------------------------------------------------------------------|
-----------------------------------------------------------------------|
-----------12-13-15-13-12----------------12-13-15-13-12----------------|
--12-13-15----------------15-13-12-15-15----------------15-13-12-15-15-|
-----------------------------------------------------------------------|
-----------------------------------------------------------------------|


   7  7  7  7  7  7  7 --- |--6--|  6  6
   S  S  S  S  S  S  S  S  S  S  S  S  S  Q      E  E
-------------------------------------------------------|
--------------12-14-15-15-14-12------------------------|
--12-13-15-15-------------------15-13-12-15~----12--0--|
-------------------------------------------------------|
-------------------------------------------------------|
-------------------------------------------------------|


   Q      Q      Q      Q
--12-----12-----15-----16-----|
--15b----15b----18b----19b----|
------------------------------|
------------------------------|
------------------------------|
------------------------------|


   S  S  S  S  S  S  S  S  S  S  S  S  S  S  S  S
--19-19-------------19-19-------------20-20-------|
--------17-17-17-17-------17-17-17-17-------17-17-|
--------------------------------------------------|
--------------------------------------------------|
--------------------------------------------------|
--------------------------------------------------|


   S  S  S  S  S  S  S  S  S  S  S  S  S  S  S  S
--19-19-------------19-19-------------20-20-------|
--------17-17-17-17-------17-17-17-17-------17-17-|
--------------------------------------------------|
--------------------------------------------------|
--------------------------------------------------|
--------------------------------------------------|


   S  S  S  S  S  S  S  S  S  S  S  S  E     S  S
--19-19-------------19-19-------------20\------12h-|
--------17-17-17-17-------17-17-17-17------/15-----|
---------------------------------------------------|
---------------------------------------------------|
---------------------------------------------------|
---------------------------------------------------|


   |------5------|   |------5------|
   S   S  S  S   S   S  S  S   S   S  Q.      E
--16p-12----12h-16p-12----12h-16p-12-12-----------|-----|-----|-----|-----|
---------15------------15------------15b------L\--|-----|-----|-----|-----|
--------------------------------------------------|-----|-----|-----|-----|
--------------------------------------------------|-----|-----|-----|-----|
--------------------------------------------------|-----|-----|-----|-----|
--------------------------------------------------|-----|-----|-----|-----|


-----|-----|-----|-----|-----|-----|-----|-----|-----|-----|-----|-----|-----|
-----|-----|-----|-----|-----|-----|-----|-----|-----|-----|-----|-----|-----|
-----|-----|-----|-----|-----|-----|-----|-----|-----|-----|-----|-----|-----|
-----|-----|-----|-----|-----|-----|-----|-----|-----|-----|-----|-----|-----|
-----|-----|-----|-----|-----|-----|-----|-----|-----|-----|-----|-----|-----|
-----|-----|-----|-----|-----|-----|-----|-----|-----|-----|-----|-----|-----|


                                            E  S  S S S  S S S  S E  S  S E
-----|-----|-----|-----|-----|-----|-----|-----------------------------------|
-----|-----|-----|-----|-----|-----|-----|-----------------------------------|
-----|-----|-----|-----|-----|-----|-----|---------------------------0h-2-0--|
-----|-----|-----|-----|-----|-----|-----|-----2p-0---2p-0---2p-0------------|
-----|-----|-----|-----|-----|-----|-----|-----------------------------------|
-----|-----|-----|-----|-----|-----|-----|--0-------0------0------0----------|


  E  S  S S S  S S S  S S S S S E      E  S  S S S  S S S  S E  S  S E
------------------------------------|-----------------------------------|
------------------------------------|-----------------------------------|
------------------------------------|---------------------------0h-2-0--|
-----2p-0---2p-0---2p-0-------------|-----2p-0---2p-0---2p-0------------|
--------------------------5-----5b--|-----------------------------------|
--0-------0------0------0-----0-----|--0-------0------0------0----------|


  E  S  S S S  S S S  S S S S S E      E  S  S S S  S S S  S E  S  S E
------------------------------------|-----------------------------------|
------------------------------------|-----------------------------------|
------------------------------------|---------------------------0h-2-0--|
-----2p-0---2p-0---2p-0-------------|-----2p-0---2p-0---2p-0------------|
--------------------------5-----5b--|-----------------------------------|
--0-------0------0------0-----0-----|--0-------0------0------0----------|


  E  S  S S S  S S S  S S S S S E      E  S  S S S  S S S  S E  S  S E
------------------------------------|-----------------------------------|
------------------------------------|-----------------------------------|
------------------------------------|---------------------------0h-2-0--|
-----2p-0---2p-0---2p-0-------------|-----2p-0---2p-0---2p-0------------|
--------------------------5-----5b--|-----------------------------------|
--0-------0------0------0-----0-----|--0-------0------0------0----------|


  E  S  S S S  S S S  S E   Q        Q    Q      H
---------------------------10----|--12----LS----18--------|
---------------------------------|------------------------|
----------------------------7----|---9----LS----15--------|
-----2p-0---2p-0---2p-0----------|------------------------|
---------------------------------|------------------------|
--0-------0------0------0--------|------------------------|


  H        Q      Q        Q    Q      Q    Q         H        Q      Q
--L--------Ls----10----|--12----LS----18----LS----|--17--------Ls----10s----|
-----------------------|--------------------------|-------------------------|
--L--------Ls-----7----|---9----LS----15----LS----|--14--------Ls-----7s----|
-----------------------|--------------------------|-------------------------|
-----------------------|--------------------------|-------------------------|
-----------------------|--------------------------|-------------------------|


   Q    Q      H           H        Q      Q        Q    Q      Q    Q
--12----LS----18--------|--L--------Ls----10----|--12----LS----18----LS----|
------------------------|-----------------------|--------------------------|
---9----LS----15--------|--L--------Ls-----7----|---9----LS----15----LS----|
------------------------|-----------------------|--------------------------|
------------------------|-----------------------|--------------------------|
------------------------|-----------------------|--------------------------|


   H          Q.      E      Q     E  E   Q    E  E
--17s--------13s------8\--|---------------------------|
--------------------------|---------------------------|
--14s--------10s------5\--|--L\----9--8~--L----8--7~--|
--------------------------|---------------------------|
--------------------------|---------------------------|
--------------------------|---------------------------|


  Q    E  E  Q      Q       E  E  E  E   Q    E  E
-------------------------|---------------------------|
-------------------------|---------------------------|
--L----7--6--7S----10----|--9--9--9--8~--L----8--7~--|
-------------7S----10----|--9--9---------------------|
-------------5S-----8----|--7--7---------------------|
-------------5S-----8----|--7--7---------------------|


  Q    E  E  Q      Q        E  E    E   E   Q     E   E
--------------------------|--------------------------------|
--------------------------|--------------------------------|
--L----7--6--7S----12S----|--9--9--/12--11~--L----11--10~--|
-------------7S----12S----|--9--9--------------------------|
-------------5S----10S----|--7--7--------------------------|
-------------5S----10S----|--7--7--------------------------|


  Q     E  E  Q      Q       E  E    E   E   Q     E   E
--------------------------|--------------------------------|
--------------------------|--------------------------------|
--L----10--9--7S----10----|--9--9--/12--11~--L----11--10~--|
--------------7S----10----|--9--9--------------------------|
--------------5S-----8----|--7--7--------------------------|
--------------5S-----8----|--7--7--------------------------|


  Q     E  E  Q      Q        W                   W
---------------------------|-------------------|-------------------|
---------------------------|-------------------|-------------------|
--L----10--9--7S----12\----|-------------------|-------------------|
--------------7S----12\----|-------------------|-------------------|
--------------5S----10\----|-------------------|-------------------|
--------------5S----10\----|-------------------|-------------------|


  W                   Q    Q      Q       Q
-------------------|----------------------------|
-------------------|----------------------------|
-------------------|----------------------------|
-------------------|----------------------------|
-------------------|-------x--------------------|
-------------------|-------x----/17\----/17\----|

   |-------------5-------------|  |------------------5-----------------|  |-----
   S                  S  S  S  S  S                           S  S  S  S  S  S
---------------------------------------------------------------------------------|
---------------------------12-12-----------------------------------------12-12---|
--12-----------------14-15-------15--------------------------14-12-14-15-------1-|
---------------------------------------------------------------------------------|
---------------------------------------------------------------------------------|
---------------------------------------------------------------------------------|


   |-----5-----|  |-----5-----|  |-----5-----|  |-----5-----|
   S  S  S  S  S  S  S  S  S  S  S  S  S  S  S  S  S  S  S  S
--------------------------------------------------------------|
--------------12-12----------------12-12----------------12-14-|
--14-12-14-15-------15-14-12-14-15-------15-14-12-14-15-------|
--------------------------------------------------------------|
--------------------------------------------------------------|
--------------------------------------------------------------|


   |-----5-----|  |-----5----|  |-----5----|  |----5----|
   S  S  S  S  S  S  S  S S  S  S  S  S  S S  S S S  S  S
----------------------------------------------------------|
--15-14-15------------------------------------------------|
-----------15\-9-11-12\-7-9-10/-9-11-12\-7-9-10-9-7-------|
----------------------------------------------------10\-5-|
----------------------------------------------------------|
----------------------------------------------------------|


  |----5----|  |---5---|
  S S  S S  S  S S S S S E  E  Q       W                    W
------------------------------------|--------------------|-------------------|
------------------------------------|--------------------|-------------------|
------------------------------------|--------------------|-------------------|
--7-8/-7-9-10\-5-7-8-7-5------------|--------------------|-------------------|
-------------------------7--5--7----|--7b----------------|--L----------------|
------------------------------------|--------------------|-------------------|


  W                   Q.     E    H            W
-------------------|------------------------|-------------------|
-------------------|------------------------|-------------------|
-------------------|------------------------|-------------------|
-------------------|------------------------|-------------------|
--L----------------|--L------L--------------|-------------------|
-------------------|------------/15\--------|-------------------|


  W                   W                   W                   W
-------------------|-------------------|-------------------|-------------------|
-------------------|-------------------|-------------------|-------------------|
-------------------|-------------------|-------------------|-------------------|
-------------------|-------------------|-------------------|-------------------|
-------------------|-------------------|-------------------|-------------------|
-------------------|-------------------|-------------------|-------------------|


  W                   W                   W                   W
-------------------|-------------------|-------------------|-------------------|
-------------------|-------------------|-------------------|-------------------|
-------------------|-------------------|-------------------|-------------------|
-------------------|-------------------|-------------------|-------------------|
-------------------|-------------------|-------------------|-------------------|
-------------------|-------------------|-------------------|-------------------|


  W                   W                   W
-------------------|-------------------|-------------------||
-------------------|-------------------|-------------------||
-------------------|-------------------|-------------------||
-------------------|-------------------|-------------------||
-------------------|-------------------|-------------------||
-------------------|-------------------|-------------------||

________________________________________________________________________________
********************************************************************************
********************************************************************************
********************************************************************************
________________________________________________________________________________




John 5 [Rhythm]


     H        Q                   Q
E||------------------------------10s----|
B||-------------------------------------|
G||-------------------------------7s----|
D||-------------------------------------|
A||-------------------------------------|
E||-------------------------------------|

   Q                          Q      H           H        Q      Q
--12--------------------------LS----18--------|--L--------Ls----10----|
----------------------------------------------|-----------------------|
---9--------------------------LS----15--------|--L--------Ls-----7----|
----------------------------------------------|-----------------------|
----------------------------------------------|-----------------------|
----------------------------------------------|-----------------------|


   Q    Q      Q    Q         H        Q      Q         Q    Q      H
--12----LS----18----LS----|--17--------Ls----10s----|--12----LS----18--------|
--------------------------|-------------------------|------------------------|
---9----LS----15----LS----|--14--------Ls-----7s----|---9----LS----15--------|
--------------------------|-------------------------|------------------------|
--------------------------|-------------------------|------------------------|
--------------------------|-------------------------|------------------------|


  H        Q      Q        Q    Q      Q    Q         Q    Q     Q     Q
--L--------Ls----10----|--12----LS----18----LS----|--17----L\---------10s----|
-----------------------|--------------------------|--------------------------|
--L--------Ls-----7----|---9----LS----15----LS----|--14----L\----------7s----|
-----------------------|--------------------------|--------------------------|
-----------------------|--------------------------|--------------------------|
-----------------------|--------------------------|--------------------------|


   Q    Q      H           H        Q      Q        Q    Q      Q    Q
--12----LS----18--------|--L--------Ls----10----|--12----LS----18----LS----|
------------------------|-----------------------|--------------------------|
---9----LS----15--------|--L--------Ls-----7----|---9----LS----15----LS----|
------------------------|-----------------------|--------------------------|
------------------------|-----------------------|--------------------------|
------------------------|-----------------------|--------------------------|


   H        Q      Q         Q    Q      H           H        Q      Q
--17--------Ls----10s----|--12----LS----18--------|--L--------Ls----10----|
-------------------------|------------------------|-----------------------|
--14--------Ls-----7s----|---9----LS----15--------|--L--------Ls-----7----|
-------------------------|------------------------|-----------------------|
-------------------------|------------------------|-----------------------|
-------------------------|------------------------|-----------------------|


                                                        TP
   Q    Q      Q    Q         H          Q.      E      W
--12----LS----18----LS----|--17s--------13s------8\--|-------------------|
--------------------------|--------------------------|-------------------|
---9----LS----15----LS----|--14s--------10s------5\--|-------------------|
--------------------------|--------------------------|-------------------|
--------------------------|--------------------------|-------------------|
--------------------------|--------------------------|--0----------------|


  TP                   TP                    TP
  W                    W                     W
-------------------|---------------------|---------------------|
-------------------|---------------------|---------------------|
-------------------|---------------------|---------------------|
-------------------|---------------------|---------------------|
-------------------|---------------------|---------------------|
--0----------------|--(0)----------------|--(0)----------------|


   TP                    TP                    TP
   W                     W                     W
---------------------|---------------------|---------------------|
---------------------|---------------------|---------------------|
---------------------|---------------------|---------------------|
---------------------|---------------------|---------------------|
---------------------|---------------------|---------------------|
--(0)----------------|--(0)----------------|--(0)----------------|


  H        Q     Q         Q    Q      H           H        Q      Q
----------------10s----|--12----LS----18--------|--L--------Ls----10----|
-----------------------|------------------------|-----------------------|
-----------------7s----|---9----LS----15--------|--L--------Ls-----7----|
-----------------------|------------------------|-----------------------|
-----------------------|------------------------|-----------------------|
-----------------------|------------------------|-----------------------|


   Q    Q      Q    Q         H        Q      Q         Q    Q      H
--12----LS----18----LS----|--17--------Ls----10s----|--12----LS----18--------|
--------------------------|-------------------------|------------------------|
---9----LS----15----LS----|--14--------Ls-----7s----|---9----LS----15--------|
--------------------------|-------------------------|------------------------|
--------------------------|-------------------------|------------------------|
--------------------------|-------------------------|------------------------|


  H        Q      Q        Q    Q      Q    Q         H          Q.      E
--L--------Ls----10----|--12----LS----18----LS----|--17s--------13s------8\--|
-----------------------|--------------------------|--------------------------|
--L--------Ls-----7----|---9----LS----15----LS----|--14s--------10s------5\--|
-----------------------|--------------------------|--------------------------|
-----------------------|--------------------------|--------------------------|
-----------------------|--------------------------|--------------------------|


  Q    Q     H           H        H           Q    Q     H
----------------------|--------------------|----------------------|
----------------------|--------------------|----------------------|
----------------------|--------------------|----------------------|
--5----L\-------------|-----------6--------|--5----L\-------------|
--5----L\-------------|-----------6--------|--5----L\-------------|
--3----L\-------------|-----------4--------|--3----L\-------------|


  H        H           Q    Q     H           H        H
--------------------|----------------------|--------------------|
--------------------|----------------------|--------------------|
--------------------|----------------------|--------------------|
-----------3--------|--5----L\-------------|-----------6--------|
-----------3--------|--5----L\-------------|-----------6--------|
-----------1--------|--3----L\-------------|-----------4--------|


                         PM  PM    PM
  Q    Q     H           E.  S  E  E  Q     E    E
----------------------|-----------------------------|
----------------------|-----------------------------|
----------------------|---------------7----(7)b--L--|
--5----L\-------------|--5---4--L--3--7----(7)b--L--|
--5----L\-------------|--5---2--L--3--5----(5)b--L--|
--3----L\-------------|--3---2--L--1----------------|


  E  E  E  E   Q    E  E      Q    E  E  Q      Q
---------------------------|-------------------------|
---------------------------|-------------------------|
--9--9--9--8~--L----8--7~--|--L----7--6--7S----10----|
--9--9---------------------|-------------7S----10----|
--7--7---------------------|-------------5S-----8----|
--7--7---------------------|-------------5S-----8----|


  E  E  E  E   Q    E  E      Q    E  E  Q      Q
---------------------------|--------------------------|
---------------------------|--------------------------|
--9--9--9--8~--L----8--7~--|--L----7--6--7S----12S----|
--9--9---------------------|-------------7S----12S----|
--7--7---------------------|-------------5S----10S----|
--7--7---------------------|-------------5S----10S----|


  E  E  E  E   Q    E  E      Q    E  E  Q      Q
---------------------------|-------------------------|
---------------------------|-------------------------|
--9--9--9--8~--L----8--7~--|--L----7--6--7S----10----|
--9--9---------------------|-------------7S----10----|
--7--7---------------------|-------------5S-----8----|
--7--7---------------------|-------------5S-----8----|


  E  E  E  E   Q    E  E      Q    E  E  Q     Q         Q    Q      H
---------------------------|------------------10s----|--12----LS----18--------|
---------------------------|-------------------------|------------------------|
--9--9--9--8~--L----8--7~--|--L----7--6--7-----7s----|---9----LS----15--------|
--9--9---------------------|-------------7-----------|------------------------|
--7--7---------------------|-------------5-----------|------------------------|
--7--7---------------------|-------------5-----------|------------------------|


  H        Q      Q        Q    Q      Q    Q         H        Q      Q
--L--------Ls----10----|--12----LS----18----LS----|--17--------Ls----10s----|
-----------------------|--------------------------|-------------------------|
--L--------Ls-----7----|---9----LS----15----LS----|--14--------Ls-----7s----|
-----------------------|--------------------------|-------------------------|
-----------------------|--------------------------|-------------------------|
-----------------------|--------------------------|-------------------------|


   Q    Q      H           H        Q      Q        Q    Q      Q    Q
--12----LS----18--------|--L--------Ls----10----|--12----LS----18----LS----|
------------------------|-----------------------|--------------------------|
---9----LS----15--------|--L--------Ls-----7----|---9----LS----15----LS----|
------------------------|-----------------------|--------------------------|
------------------------|-----------------------|--------------------------|
------------------------|-----------------------|--------------------------|


                             TP                  TP
   H          Q.      E      W                   W
--17s--------13s------8\--|-------------------|-------------------|
--------------------------|-------------------|-------------------|
--14s--------10s------5\--|-------------------|-------------------|
--------------------------|-------------------|-------------------|
--------------------------|-------------------|-------------------|
--------------------------|--0----------------|--0----------------|


  TP                  TP                  TP                  TP
  W                   W                   W                   W
-------------------|-------------------|-------------------|-------------------|
-------------------|-------------------|-------------------|-------------------|
-------------------|-------------------|-------------------|-------------------|
-------------------|-------------------|-------------------|-------------------|
-------------------|-------------------|-------------------|-------------------|
--0----------------|--0----------------|--0----------------|--0----------------|


  TP                  TP
  W                   W                   Q    Q     H
-------------------|-------------------|----------------------|
-------------------|-------------------|----------------------|
-------------------|-------------------|----------------------|
-------------------|-------------------|--5----L\-------------|
-------------------|-------------------|--5----L\-------------|
--0----------------|--0----------------|--3----L\-------------|


  H        H           Q    Q     H           H        H
--------------------|----------------------|--------------------|
--------------------|----------------------|--------------------|
--------------------|----------------------|--------------------|
-----------6--------|--5----L\-------------|-----------3--------|
-----------6--------|--5----L\-------------|-----------3--------|
-----------4--------|--3----L\-------------|-----------1--------|


  Q    Q     H           H        H
----------------------|--------------------|
----------------------|--------------------|
----------------------|--------------------|
--5----L\-------------|-----------6--------|
--5----L\-------------|-----------6--------|
--3----L\-------------|-----------4--------|


                PM    PM
                              |--3--|
  Q    Q      S S   S S   E   S  S  S
--------------------------------------|
--------------------------------------|
-------------12-8--11-7--10\--0h-4h-5-|
--5----L\-----------------------------|
--5----L\-----------------------------|
--3----L\-----------------------------|


   T                 T                 T                 T
   |--6--|  |--6--|  |--6--|  |--6--|  |--6--|  |--6--|  |--6--|  |--6--|
   S  S  S  S  S  S  S  S  S  S  S  S  S  S  S  S  S  S  S  S  S  S  S  S
--------------------------------------------------------------------------|
--------------------------------------------------------------------------|
--16p-5p-4p-0h-4h-5-16p-5p-4p-0h-4h-5-16p-5p-4p-0h-4h-5-16p-5p-4p-0h-4h-5-|
--------------------------------------------------------------------------|
--------------------------------------------------------------------------|
--------------------------------------------------------------------------|


   T                 T                 T                 T
   |--6--|  |--6--|  |--6--|  |--6--|  |--6--|  |--6--|  |--6--|  |--6--|
   S  S  S  S  S  S  S  S  S  S  S  S  S  S  S  S  S  S  S  S  S  S  S  S
--------------------------------------------------------------------------|
--------------------------------------------------------------------------|
--16p-5p-4p-0h-4h-5-16p-5p-4p-0h-4h-5-16p-5p-4p-0h-4h-5-16p-5p-4p-0h-4h-5-|
--------------------------------------------------------------------------|
--------------------------------------------------------------------------|
--------------------------------------------------------------------------|


   T                 T                 T                 T
   |--6--|  |--6--|  |--6--|  |--6--|  |--6--|  |--6--|  |--6--|  |--6--|
   S  S  S  S  S  S  S  S  S  S  S  S  S  S  S  S  S  S  S  S  S  S  S  S
--------------------------------------------------------------------------|
--------------------------------------------------------------------------|
--16p-5p-4p-0h-4h-5-16p-5p-4p-0h-4h-5-16p-5p-4p-0h-4h-5-16p-5p-4p-0h-4h-5-|
--------------------------------------------------------------------------|
--------------------------------------------------------------------------|
--------------------------------------------------------------------------|


   T                 T                 T
   |--6--|  |--6--|  |--6--|  |--6--|  |--3--|
   S  S  S  S  S  S  S  S  S  S  S  S  S  S  S  E   Q
----------------------------------------------------------|
----------------------------------------------------------|
--16p-5p-4p-0h-4h-5-16p-5p-4p-0h-4h-5-16p-5p-4p-0---------|
----------------------------------------------------------|
----------------------------------------------------------|
---------------------------------------------------15\----|


               PM PM   PM PM PM PM                     PM PM   PM PM
  S  S S S S S S  S  S E  S  S  S  E      S  S S S S S S  S  S E  S  Q
---------------------------------------|----------------------------------|
---------------------------------------|----------------------------------|
---------------------------------------|----------------------------------|
---------------------------------------|-----------------------------5----|
---------------------------------------|-----------------------------5----|
--0h-2-x-x-x-x-0--2--L-2--0--5--5--5b--|--0h-2-x-x-x-x-0--2--L-2--0--3----|


               PM PM   PM PM PM PM                     PM PM   PM PM
  S  S S S S S S  S  S E  S  S  S  E      S  S S S S S S  S  S E  S  Q
---------------------------------------|----------------------------------|
---------------------------------------|----------------------------------|
---------------------------------------|----------------------------------|
---------------------------------------|-----------------------------5----|
---------------------------------------|-----------------------------5----|
--0h-2-x-x-x-x-0--2--L-2--0--5--5--5b--|--0h-2-x-x-x-x-0--2--L-2--0--3----|


               PM PM   PM PM PM PM                     PM PM   PM PM
  S  S S S S S S  S  S E  S  S  S  E      S  S S S S S S  S  S E  S  Q
---------------------------------------|----------------------------------|
---------------------------------------|----------------------------------|
---------------------------------------|----------------------------------|
---------------------------------------|-----------------------------5----|
---------------------------------------|-----------------------------5----|
--0h-2-x-x-x-x-0--2--L-2--0--5--5--5b--|--0h-2-x-x-x-x-0--2--L-2--0--3----|


               PM PM   PM PM PM PM                     PM PM   PM PM
  S  S S S S S S  S  S E  S  S  S  E      S  S S S S S S  S  S E  S  Q
---------------------------------------|----------------------------------|
---------------------------------------|----------------------------------|
---------------------------------------|----------------------------------|
---------------------------------------|-----------------------------5----|
---------------------------------------|-----------------------------5----|
--0h-2-x-x-x-x-0--2--L-2--0--5--5--5b--|--0h-2-x-x-x-x-0--2--L-2--0--3----|


               PM PM   PM PM PM PM                     PM PM   PM PM
  S  S S S S S S  S  S E  S  S  S  E      S  S S S S S S  S  S E  S  Q
---------------------------------------|----------------------------------|
---------------------------------------|----------------------------------|
---------------------------------------|----------------------------------|
---------------------------------------|-----------------------------5----|
---------------------------------------|-----------------------------5----|
--0h-2-x-x-x-x-0--2--L-2--0--5--5--5b--|--0h-2-x-x-x-x-0--2--L-2--0--3----|


               PM PM   PM PM PM PM                     PM PM   PM PM
  S  S S S S S S  S  S E  S  S  S  E      S  S S S S S S  S  S E  S  Q
---------------------------------------|----------------------------------|
---------------------------------------|----------------------------------|
---------------------------------------|----------------------------------|
---------------------------------------|-----------------------------5----|
---------------------------------------|-----------------------------5----|
--0h-2-x-x-x-x-0--2--L-2--0--5--5--5b--|--0h-2-x-x-x-x-0--2--L-2--0--3----|


               PM PM   PM PM PM PM                     PM PM   PM PM
  S  S S S S S S  S  S E  S  S  S  E      S  S S S S S S  S  S E  S  Q
---------------------------------------|----------------------------------|
---------------------------------------|----------------------------------|
---------------------------------------|----------------------------------|
---------------------------------------|-----------------------------5----|
---------------------------------------|-----------------------------5----|
--0h-2-x-x-x-x-0--2--L-2--0--5--5--5b--|--0h-2-x-x-x-x-0--2--L-2--0--3----|


               PM PM   PM PM PM PM                     PM PM   PM PM
  S  S S S S S S  S  S E  S  S  S  E      S  S S S S S S  S  S E  S  Q
---------------------------------------|----------------------------------|
---------------------------------------|----------------------------------|
---------------------------------------|----------------------------------|
---------------------------------------|-----------------------------5----|
---------------------------------------|-----------------------------5----|
--0h-2-x-x-x-x-0--2--L-2--0--5--5--5b--|--0h-2-x-x-x-x-0--2--L-2--0--3----|


               PM PM   PM PM PM PM                     PM PM   PM PM
  S  S S S S S S  S  S E  S  S  S  E      S  S S S S S S  S  S E  S  Q
---------------------------------------|----------------------------------|
---------------------------------------|----------------------------------|
---------------------------------------|----------------------------------|
---------------------------------------|-----------------------------5----|
---------------------------------------|-----------------------------5----|
--0h-2-x-x-x-x-0--2--L-2--0--5--5--5b--|--0h-2-x-x-x-x-0--2--L-2--0--3----|


               PM PM   PM PM PM PM                     PM PM   PM PM
  S  S S S S S S  S  S E  S  S  S  E      S  S S S S S S  S  S E  S  Q
---------------------------------------|----------------------------------|
---------------------------------------|----------------------------------|
---------------------------------------|----------------------------------|
---------------------------------------|-----------------------------5----|
---------------------------------------|-----------------------------5----|
--0h-2-x-x-x-x-0--2--L-2--0--5--5--5b--|--0h-2-x-x-x-x-0--2--L-2--0--3----|


               PM PM   PM PM PM PM                     PM PM   PM
  S  S S S S S S  S  S E  S  S  S  E      S  S S S S S S  S  S S  E  Q
---------------------------------------|----------------------------------|
---------------------------------------|----------------------------------|
---------------------------------------|----------------------------------|
---------------------------------------|----------------------------------|
---------------------------------------|----------------------------------|
--0h-2-x-x-x-x-0--2--L-2--0--5--5--5b--|--0h-2-x-x-x-x-0--2--L-2----------|


               PM PM   PM PM PM PM                     PM PM   PM
  S  S S S S S S  S  S E  S  S  S  E      S  S S S S S S  S  S S  E  Q
---------------------------------------|----------------------------------|
---------------------------------------|----------------------------------|
---------------------------------------|----------------------------------|
---------------------------------------|----------------------------------|
---------------------------------------|----------------------------------|
--0h-2-x-x-x-x-0--2--L-2--0--5--5--5b--|--0h-2-x-x-x-x-0--2--L-2----------|


               PM PM   PM PM PM PM                     PM PM   PM
  S  S S S S S S  S  S E  S  S  S  E      S  S S S S S S  S  S S  E  Q
---------------------------------------|----------------------------------|
---------------------------------------|----------------------------------|
---------------------------------------|----------------------------------|
---------------------------------------|----------------------------------|
---------------------------------------|----------------------------------|
--0h-2-x-x-x-x-0--2--L-2--0--5--5--5b--|--0h-2-x-x-x-x-0--2--L-2----------|


               PM PM   PM PM PM PM                     PM PM   PM
  S  S S S S S S  S  S E  S  S  S  E      S  S S S S S S  S  S S  E  Q
---------------------------------------|----------------------------------|
---------------------------------------|----------------------------------|
---------------------------------------|----------------------------------|
---------------------------------------|----------------------------------|
---------------------------------------|----------------------------------|
--0h-2-x-x-x-x-0--2--L-2--0--5--5--5b--|--0h-2-x-x-x-x-0--2--L-2----------|


               PM PM   PM PM PM PM                     PM PM   PM
  S  S S S S S S  S  S E  S  S  S  E      S  S S S S S S  S  S S  E  Q
---------------------------------------|----------------------------------|
---------------------------------------|----------------------------------|
---------------------------------------|----------------------------------|
---------------------------------------|----------------------------------|
---------------------------------------|----------------------------------|
--0h-2-x-x-x-x-0--2--L-2--0--5--5--5b--|--0h-2-x-x-x-x-0--2--L-2----------|


               PM PM   PM PM PM PM                     PM PM   PM
  S  S S S S S S  S  S E  S  S  S  E      S  S S S S S S  S  S S  E  Q
---------------------------------------|----------------------------------|
---------------------------------------|----------------------------------|
---------------------------------------|----------------------------------|
---------------------------------------|----------------------------------|
---------------------------------------|----------------------------------|
--0h-2-x-x-x-x-0--2--L-2--0--5--5--5b--|--0h-2-x-x-x-x-0--2--L-2----------|


               PM PM   PM PM PM PM                     PM PM   PM
  S  S S S S S S  S  S E  S  S  S  E      S  S S S S S S  S  S S  E  Q
---------------------------------------|----------------------------------|
---------------------------------------|----------------------------------|
---------------------------------------|----------------------------------|
---------------------------------------|----------------------------------|
---------------------------------------|----------------------------------|
--0h-2-x-x-x-x-0--2--L-2--0--5--5--5b--|--0h-2-x-x-x-x-0--2--L-2----------|


               PM PM   PM PM PM PM                     PM PM   PM PM
  S  S S S S S S  S  S E  S  S  S  E      S  S S S S S S  S  S E  S  Q
---------------------------------------|----------------------------------|
---------------------------------------|----------------------------------|
---------------------------------------|----------------------------------|
---------------------------------------|-----------------------------5----|
---------------------------------------|-----------------------------5----|
--0h-2-x-x-x-x-0--2--L-2--0--5--5--5b--|--0h-2-x-x-x-x-0--2--L-2--0--3----|


-------|-------|-------|-------|-------|-------|-------|-------|
-------|-------|-------|-------|-------|-------|-------|-------|
-------|-------|-------|-------|-------|-------|-------|-------|
-------|-------|-------|-------|-------|-------|-------|-------|
-------|-------|-------|-------|-------|-------|-------|-------|
-------|-------|-------|-------|-------|-------|-------|-------|


  Q    Q     H           H        H           Q    Q     H
----------------------|--------------------|----------------------|
----------------------|--------------------|----------------------|
----------------------|--------------------|----------------------|
--5----L\-------------|-----------6--------|--5----L\-------------|
--5----L\-------------|-----------6--------|--5----L\-------------|
--3----L\-------------|-----------4--------|--3----L\-------------|


  H        H           Q    Q     H           H        H
--------------------|----------------------|--------------------|
--------------------|----------------------|--------------------|
--------------------|----------------------|--------------------|
-----------3--------|--5----L\-------------|-----------6--------|
-----------3--------|--5----L\-------------|-----------6--------|
-----------1--------|--3----L\-------------|-----------4--------|


                         PM  PM    PM
  Q    Q     H           E.  S  E  E  Q     E    E
----------------------|-----------------------------|
----------------------|-----------------------------|
----------------------|---------------7----(7)b--L--|
--5----L\-------------|--5---4--L--3--7----(7)b--L--|
--5----L\-------------|--5---2--L--3--5----(5)b--L--|
--3----L\-------------|--3---2--L--1----------------|


  E  E  E  E   Q    E  E      Q    E  E  Q      Q
---------------------------|-------------------------|
---------------------------|-------------------------|
--9--9--9--8~--L----8--7~--|--L----7--6--7S----10----|
--9--9---------------------|-------------7S----10----|
--7--7---------------------|-------------5S-----8----|
--7--7---------------------|-------------5S-----8----|


  E  E  E  E   Q    E  E      Q    E  E  Q      Q
---------------------------|--------------------------|
---------------------------|--------------------------|
--9--9--9--8~--L----8--7~--|--L----7--6--7S----12S----|
--9--9---------------------|-------------7S----12S----|
--7--7---------------------|-------------5S----10S----|
--7--7---------------------|-------------5S----10S----|


  E  E  E  E   Q    E  E      Q    E  E  Q      Q
---------------------------|-------------------------|
---------------------------|-------------------------|
--9--9--9--8~--L----8--7~--|--L----7--6--7S----10----|
--9--9---------------------|-------------7S----10----|
--7--7---------------------|-------------5S-----8----|
--7--7---------------------|-------------5S-----8----|


  E  E  E  E   Q    E  E      Q    E  E  Q      Q
---------------------------|-------------------------|
---------------------------|-------------------------|
--9--9--9--8~--L----8--7~--|--L----7--6--7S----12----|
--9--9---------------------|-------------7S----12----|
--7--7---------------------|-------------5S----10----|
--7--7---------------------|-------------5S----10----|


  PM PM    PM PM    PM PM             PM   PM      PM PM    PM PM    PM PM
  E  E  E  E  E  E  E  E     H        Q    Q       E  E  E  E  E  E  E  E
--------------------------|---------------------|--------------------------|
--------------------------|---------------------|--------------------------|
--------------------------|---------------------|--------------------------|
--------------------------|---------------------|--------------------------|
--2--2-----2--2-----2--2--|-----------2----2----|--2--2-----2--2-----2--2--|
--0--0-----0--0-----0--0--|-----------0----0----|--0--0-----0--0-----0--0--|


                      PM PM    PM PM    PM PM             PM   PM
  W                   E  E  E  E  E  E  E  E     H        Q    Q
-------------------|--------------------------|---------------------|
-------------------|--------------------------|---------------------|
-------------------|--------------------------|---------------------|
-------------------|--------------------------|---------------------|
-------------------|--2--2-----2--2-----2--2--|-----------2----2----|
-------------------|--0--0-----0--0-----0--0--|-----------0----0----|


  PM PM    PM PM    PM PM                        PM PM    PM PM    PM PM
  E  E  E  E  E  E  E  E     W                   E  E  E  E  E  E  E  E
--------------------------|-------------------|--------------------------|
--------------------------|-------------------|--------------------------|
--------------------------|-------------------|--------------------------|
--------------------------|-------------------|--------------------------|
--2--2-----2--2-----2--2--|-------------------|--2--2-----2--2-----2--2--|
--0--0-----0--0-----0--0--|-------------------|--0--0-----0--0-----0--0--|


           PM   PM      PM PM    PM PM    PM PM
  H        Q    Q       E  E  E  E  E  E  E  E     W
---------------------|--------------------------|-------------------|
---------------------|--------------------------|-------------------|
---------------------|--------------------------|-------------------|
---------------------|--------------------------|-------------------|
-----------2----2----|--2--2-----2--2-----2--2--|-------------------|
-----------0----0----|--0--0-----0--0-----0--0--|-------------------|


  PM PM    PM PM    PM PM             PM   PM      PM PM    PM PM    PM PM
  E  E  E  E  E  E  E  E     H        Q    Q       E  E  E  E  E  E  E  E
--------------------------|---------------------|--------------------------|
--------------------------|---------------------|--------------------------|
--------------------------|---------------------|--------------------------|
--------------------------|---------------------|--------------------------|
--2--2-----2--2-----2--2--|-----------2----2----|--2--2-----2--2-----2--2--|
--0--0-----0--0-----0--0--|-----------0----0----|--0--0-----0--0-----0--0--|


                      PM PM    PM PM    PM PM             PM   PM
  W                   E  E  E  E  E  E  E  E     H        Q    Q
-------------------|--------------------------|---------------------|
-------------------|--------------------------|---------------------|
-------------------|--------------------------|---------------------|
-------------------|--------------------------|---------------------|
-------------------|--2--2-----2--2-----2--2--|-----------2----2----|
-------------------|--0--0-----0--0-----0--0--|-----------0----0----|


  PM PM    PM PM    PM PM                        PM PM    PM PM    PM PM
  E  E  E  E  E  E  E  E     W                   E  E  E  E  E  E  E  E
--------------------------|-------------------|--------------------------|
--------------------------|-------------------|--------------------------|
--------------------------|-------------------|--------------------------|
--------------------------|-------------------|--------------------------|
--2--2-----2--2-----2--2--|-------------------|--2--2-----2--2-----2--2--|
--0--0-----0--0-----0--0--|-------------------|--0--0-----0--0-----0--0--|


           PM   PM      PM PM    PM PM    PM PM
  H        Q    Q       E  E  E  E  E  E  E  E     W
---------------------|--------------------------|-------------------|
---------------------|--------------------------|-------------------|
---------------------|--------------------------|-------------------|
---------------------|--------------------------|-------------------|
-----------2----2----|--2--2-----2--2-----2--2--|-------------------|
-----------0----0----|--0--0-----0--0-----0--0--|-------------------|


  PM PM    PM PM    PM PM             PM   PM      PM PM    PM PM    PM PM
  E  E  E  E  E  E  E  E     H        Q    Q       E  E  E  E  E  E  E  E
--------------------------|---------------------|--------------------------|
--------------------------|---------------------|--------------------------|
--------------------------|---------------------|--------------------------|
--------------------------|---------------------|--------------------------|
--2--2-----2--2-----2--2--|-----------2----2----|--2--2-----2--2-----2--2--|
--0--0-----0--0-----0--0--|-----------0----0----|--0--0-----0--0-----0--0--|


                      PM PM    PM PM    PM PM             PM   PM
  W                   E  E  E  E  E  E  E  E     H        Q    Q
-------------------|--------------------------|---------------------|
-------------------|--------------------------|---------------------|
-------------------|--------------------------|---------------------|
-------------------|--------------------------|---------------------|
-------------------|--2--2-----2--2-----2--2--|-----------2----2----|
-------------------|--0--0-----0--0-----0--0--|-----------0----0----|


  PM PM    PM PM    PM PM                        PM PM    PM PM    PM PM
  E  E  E  E  E  E  E  E     W                   E  E  E  E  E  E  E  E
--------------------------|-------------------|--------------------------|
--------------------------|-------------------|--------------------------|
--------------------------|-------------------|--------------------------|
--------------------------|-------------------|--------------------------|
--2--2-----2--2-----2--2--|-------------------|--2--2-----2--2-----2--2--|
--0--0-----0--0-----0--0--|-------------------|--0--0-----0--0-----0--0--|


           PM   PM      PM PM    PM PM    PM PM
  H        Q    Q       E  E  E  E  E  E  E  E     W
---------------------|--------------------------|-------------------|
---------------------|--------------------------|-------------------|
---------------------|--------------------------|-------------------|
---------------------|--------------------------|-------------------|
-----------2----2----|--2--2-----2--2-----2--2--|-------------------|
-----------0----0----|--0--0-----0--0-----0--0--|-------------------|


  PM PM    PM PM    PM PM             PM   PM      PM PM    PM PM    PM PM
  E  E  E  E  E  E  E  E     H        Q    Q       E  E  E  E  E  E  E  E
--------------------------|---------------------|--------------------------|
--------------------------|---------------------|--------------------------|
--------------------------|---------------------|--------------------------|
--------------------------|---------------------|--------------------------|
--2--2-----2--2-----2--2--|-----------2----2----|--2--2-----2--2-----2--2--|
--0--0-----0--0-----0--0--|-----------0----0----|--0--0-----0--0-----0--0--|


                      PM PM    PM PM    PM PM             PM   PM
  W                   E  E  E  E  E  E  E  E     H        Q    Q
-------------------|--------------------------|---------------------|
-------------------|--------------------------|---------------------|
-------------------|--------------------------|---------------------|
-------------------|--------------------------|---------------------|
-------------------|--2--2-----2--2-----2--2--|-----------2----2----|
-------------------|--0--0-----0--0-----0--0--|-----------0----0----|


  PM PM    PM PM    PM PM                        PM PM    PM PM    PM PM
  E  E  E  E  E  E  E  E     W                   E  E  E  E  E  E  E  E
--------------------------|-------------------|--------------------------|
--------------------------|-------------------|--------------------------|
--------------------------|-------------------|--------------------------|
--------------------------|-------------------|--------------------------|
--2--2-----2--2-----2--2--|-------------------|--2--2-----2--2-----2--2--|
--0--0-----0--0-----0--0--|-------------------|--0--0-----0--0-----0--0--|


           PM   PM      PM PM    PM PM    PM PM
  H        Q    Q       E  E  E  E  E  E  E  E     W
---------------------|--------------------------|-------------------|
---------------------|--------------------------|-------------------|
---------------------|--------------------------|-------------------|
---------------------|--------------------------|-------------------|
-----------2----2----|--2--2-----2--2-----2--2--|-------------------|
-----------0----0----|--0--0-----0--0-----0--0--|-------------------|


  PM PM    PM PM    PM PM             PM   PM      PM PM    PM PM    PM PM
  E  E  E  E  E  E  E  E     H        Q    Q       E  E  E  E  E  E  E  E
--------------------------|---------------------|--------------------------|
--------------------------|---------------------|--------------------------|
--------------------------|---------------------|--------------------------|
--------------------------|---------------------|--------------------------|
--2--2-----2--2-----2--2--|-----------2----2----|--2--2-----2--2-----2--2--|
--0--0-----0--0-----0--0--|-----------0----0----|--0--0-----0--0-----0--0--|


                      PM PM    PM PM    PM PM             PM   PM
  W                   E  E  E  E  E  E  E  E     H        Q    Q
-------------------|--------------------------|---------------------|
-------------------|--------------------------|---------------------|
-------------------|--------------------------|---------------------|
-------------------|--------------------------|---------------------|
-------------------|--2--2-----2--2-----2--2--|-----------2----2----|
-------------------|--0--0-----0--0-----0--0--|-----------0----0----|


                                          PM PM    PM PM    PM PM
  W                   W                   E  E  E  E  E  E  E  E
-------------------|-------------------|--------------------------|
-------------------|-------------------|--------------------------|
-------------------|-------------------|--------------------------|
-------------------|-------------------|--------------------------|
-------------------|-------------------|--2--2-----2--2-----2--2--|
-------------------|-------------------|--0--0-----0--0-----0--0--|


           PM   PM      PM PM    PM PM    PM PM
  H        Q    Q       E  E  E  E  E  E  E  E     W
---------------------|--------------------------|-------------------|
---------------------|--------------------------|-------------------|
---------------------|--------------------------|-------------------|
---------------------|--------------------------|-------------------|
-----------2----2----|--2--2-----2--2-----2--2--|-------------------|
-----------0----0----|--0--0-----0--0-----0--0--|-------------------|


  PM PM    PM PM    PM PM             PM   PM      PM PM    PM PM    PM PM
  E  E  E  E  E  E  E  E     H        Q    Q       E  E  E  E  E  E  E  E
--------------------------|---------------------|--------------------------|
--------------------------|---------------------|--------------------------|
--------------------------|---------------------|--------------------------|
--------------------------|---------------------|--------------------------|
--2--2-----2--2-----2--2--|-----------2----2----|--2--2-----2--2-----2--2--|
--0--0-----0--0-----0--0--|-----------0----0----|--0--0-----0--0-----0--0--|


  W
-------------------|-------|-------|-------|-------|-------|-------|-------|
-------------------|-------|-------|-------|-------|-------|-------|-------|
-------------------|-------|-------|-------|-------|-------|-------|-------|
-------------------|-------|-------|-------|-------|-------|-------|-------|
-------------------|-------|-------|-------|-------|-------|-------|-------|
-------------------|-------|-------|-------|-------|-------|-------|-------|

          E     S  S S S  S S S  S E  S  S E
-------|--------------------------------------|
-------|--------------------------------------|
-------|------------------------------0h-2-0--|
-------|--------2p-0---2p-0---2p-0------------|
-------|--------------------------------------|
-------|--0----------0------0------0----------|


  E  S  S S S  S S S  S S S S S E      E  S  S S S  S S S  S E  S  S E
------------------------------------|-----------------------------------|
------------------------------------|-----------------------------------|
------------------------------------|---------------------------0h-2-0--|
-----2p-0---2p-0---2p-0-------------|-----2p-0---2p-0---2p-0------------|
--------------------------5-----5b--|-----------------------------------|
--0-------0------0------0-----0-----|--0-------0------0------0----------|


  E  S  S S S  S S S  S S S  S S E     E  S  S S S  S S S  S E  S  S E
------------------------------------|-----------------------------------|
------------------------------------|-----------------------------------|
------------------------------------|---------------------------0h-2-0--|
-----2p-0---2p-0---2p-0---2p-0---2--|-----2p-0---2p-0---2p-0------------|
------------------------------------|-----------------------------------|
--0-------0------0------0------0----|--0-------0------0------0----------|


  E  S  S S S  S S S  S S S S S E      E  S  S S S  S S S  S E  S  S E
------------------------------------|-----------------------------------|
------------------------------------|-----------------------------------|
------------------------------------|---------------------------0h-2-0--|
-----2p-0---2p-0---2p-0-------------|-----2p-0---2p-0---2p-0------------|
--------------------------5-----5b--|-----------------------------------|
--0-------0------0------0-----0-----|--0-------0------0------0----------|


  S S  S S S  S S S  S  S S  S  S S  E     E  S  S S S  S S S  S E  S  S E
----------------------------------------|-----------------------------------|
----4S-5---5S-6---6S-7----7S-8----8S-9--|-----------------------------------|
--5------8------9------10------11-------|---------------------------0h-2-0--|
----------------------------------------|-----2p-0---2p-0---2p-0------------|
----------------------------------------|-----------------------------------|
----------------------------------------|--0-------0------0------0----------|


  E  S  S S S  S S S  S S S S S E      E  S  S S S  S S S  S E  S  S E
------------------------------------|-----------------------------------|
------------------------------------|-----------------------------------|
------------------------------------|---------------------------0h-2-0--|
-----2p-0---2p-0---2p-0-------------|-----2p-0---2p-0---2p-0------------|
--------------------------5-----5b--|-----------------------------------|
--0-------0------0------0-----0-----|--0-------0------0------0----------|


  E  S  S S S  S S S  S S S  S S E     E  S  S S S  S S S  S E  S  S E
------------------------------------|-----------------------------------|
------------------------------------|-----------------------------------|
------------------------------------|---------------------------0h-2-0--|
-----2p-0---2p-0---2p-0---2p-0---2--|-----2p-0---2p-0---2p-0------------|
------------------------------------|-----------------------------------|
--0-------0------0------0------0----|--0-------0------0------0----------|


  E  S  S S S  S S S  S S S  S S E
------------------------------------|
------------------------------------|
------------------------------------|
-----2p-0---2p-0---2p-0---2p-0---2--|
------------------------------------|
--0-------0------0------0------0----|


   |--3-|      |--3-|      |--3--|      |--3--|
   S S  S S S  S S  S S S  S  S  S S S  S  S  S S S
----------------------------------------------------|
----------5-----------6------------7------------8---|
-----8-----------9-----------10-----------11--------|
--10---10-----11---11-----12----12-----13----13-----|
----------------------------------------------------|
----------------------------------------------------|


   |--3-|     |-3-|     |-3-|     |-3-|
   S S  S S S S S S S S S S S S S S S S S S
--------------------------------------------|
----------5---------4---------3---------2---|
-----8----------7---------6---------5-------|
--10---10-----9---9-----8---8-----7---7-----|
--------------------------------------------|
--------------------------------------------|


  E  S  S S S  S S S  S E  S  S E     E  S  S S S  S S S  S S S S S E
-----------------------------------|------------------------------------|
-----------------------------------|------------------------------------|
---------------------------0h-2-0--|------------------------------------|
-----2p-0---2p-0---2p-0------------|-----2p-0---2p-0---2p-0-------------|
-----------------------------------|--------------------------5-----5b--|
--0-------0------0------0----------|--0-------0------0------0-----0-----|


  E  S  S S S  S S S  S E  S  S E     E  S  S S S  S S S  S S S S S E
-----------------------------------|------------------------------------|
-----------------------------------|------------------------------------|
---------------------------0h-2-0--|------------------------------------|
-----2p-0---2p-0---2p-0------------|-----2p-0---2p-0---2p-0-------------|
-----------------------------------|--------------------------5-----5b--|
--0-------0------0------0----------|--0-------0------0------0-----0-----|


  E  S  S S S  S S S  S E  S  S E     E  S  S S S  S S S  S S S S S E
-----------------------------------|------------------------------------|
-----------------------------------|------------------------------------|
---------------------------0h-2-0--|------------------------------------|
-----2p-0---2p-0---2p-0------------|-----2p-0---2p-0---2p-0-------------|
-----------------------------------|--------------------------5-----5b--|
--0-------0------0------0----------|--0-------0------0------0-----0-----|


  E  S  S S S  S S S  S E  S  S E     E  S  S S S  S S S  S S S S S E
-----------------------------------|------------------------------------|
-----------------------------------|------------------------------------|
---------------------------0h-2-0--|------------------------------------|
-----2p-0---2p-0---2p-0------------|-----2p-0---2p-0---2p-0-------------|
-----------------------------------|--------------------------5-----5b--|
--0-------0------0------0----------|--0-------0------0------0-----0-----|


   PMPM PM  PMPM PM  PMPM PM  PM
   S S  S   S S  S   S S  S   S E  Q
----------------------------------------|
----------------------------------------|
----------------------------------------|
----------------------------------------|
----------------------------------------|
--12-0--0--12-0--0--12-0--0--12---------|


   PMPM PM  PMPM PM  PMPM PM  PMPM PM  PMPM  PMPM
   S S  S   S S  S   S S  S   S S  S   S S   S S
--------------------------------------------------|
--------------------------------------------------|
--------------------------------------------------|
--------------------------------------------------|
--------------------------------------------------|
--12-0--0--12-0--0--12-0--0--12-0--0--10-0--10-0--|


   PMPM PM  PMPM PM  PMPM PM  PM
   S S  S   S S  S   S S  S   S E  Q
----------------------------------------|
----------------------------------------|
----------------------------------------|
----------------------------------------|
----------------------------------------|
--12-0--0--12-0--0--12-0--0--12---------|


   PMPM PM  PMPM PM  PMPM PM  PMPM PM  PMPM  PMPM
   S S  S   S S  S   S S  S   S S  S   S S   S S
--------------------------------------------------|
--------------------------------------------------|
--------------------------------------------------|
--------------------------------------------------|
--------------------------------------------------|
--12-0--0--12-0--0--12-0--0--12-0--0--10-0--10-0--|


   PMPM PM  PMPM PM  PMPM PM  PM
   S S  S   S S  S   S S  S   S E  Q
----------------------------------------|
----------------------------------------|
----------------------------------------|
----------------------------------------|
----------------------------------------|
--12-0--0--12-0--0--12-0--0--12---------|


   PMPM PM  PMPM PM  PMPM PM  PMPM PM  PMPM  PMPM
   S S  S   S S  S   S S  S   S S  S   S S   S S
--------------------------------------------------|
--------------------------------------------------|
--------------------------------------------------|
--------------------------------------------------|
--------------------------------------------------|
--12-0--0--12-0--0--12-0--0--12-0--0--10-0--10-0--|


   PMPM PM  PMPM PM  PMPM PM  PM
   S S  S   S S  S   S S  S   S E  Q       W
----------------------------------------|-------------------|
----------------------------------------|-------------------|
----------------------------------------|-------------------|
----------------------------------------|-------------------|
----------------------------------------|-------------------|
--12-0--0--12-0--0--12-0--0--12---------|-------------------|


  E  E  E  E   Q    E  E      Q    E  E  Q      Q
---------------------------|-------------------------|
---------------------------|-------------------------|
--9--9--9--8~--L----8--7~--|--L----7--6--7S----10----|
--9--9---------------------|-------------7S----10----|
--7--7---------------------|-------------5S-----8----|
--7--7---------------------|-------------5S-----8----|


  E  E  E  E   Q    E  E      Q    E  E  Q      Q
---------------------------|--------------------------|
---------------------------|--------------------------|
--9--9--9--8~--L----8--7~--|--L----7--6--7S----12S----|
--9--9---------------------|-------------7S----12S----|
--7--7---------------------|-------------5S----10S----|
--7--7---------------------|-------------5S----10S----|


  E  E  E  E   Q    E  E      Q    E  E  Q      Q
---------------------------|-------------------------|
---------------------------|-------------------------|
--9--9--9--8~--L----8--7~--|--L----7--6--7S----10----|
--9--9---------------------|-------------7S----10----|
--7--7---------------------|-------------5S-----8----|
--7--7---------------------|-------------5S-----8----|


  E  E  E  E   Q    E  E      Q    E  E  Q      Q
---------------------------|--------------------------|
---------------------------|--------------------------|
--9--9--9--8~--L----8--7~--|--L----7--6--7S----12\----|
--9--9---------------------|-------------7S----12\----|
--7--7---------------------|-------------5S----10\----|
--7--7---------------------|-------------5S----10\----|


  PM PM    PM PM    PM PM       PM PM            PM    PM PM    PM PM    PM PM
  E  E  E  E  E  E  E  E     E  E  E  E  Q    E  E     E  E  E  E  E  E  E  E
--------------------------|-------------------------|--------------------------|
--------------------------|-------------------------|--------------------------|
--------------------------|-------------------------|--------------------------|
--------------------------|-------------------------|--------------------------|
--2--2-----2--2-----2--2--|-----2--2-------------2--|--2--2-----2--2-----2--2--|
--0--0-----0--0-----0--0--|-----0--0-------------0--|--0--0-----0--0-----0--0--|

     PM PM
  E  E  E  E                  Q      Q
-------------------------------------------|
-------------------------------------------|
------------------------------7S----12\----|
------------------------------7S----12\----|
-----2--2---------------------5S----10\----|
-----0--0---------------------5S----10\----|

  PM                          PM    PM PM    PM PM       PM PM            PM
  E                           E  E  E  E  E  E  E     E  E  E  E  Q    E  E
---------------------------------------------------|-------------------------|
---------------------------------------------------|-------------------------|
---------------------------------------------------|-------------------------|
---------------------------------------------------|-------------------------|
--2---------------------------2-----2--2-----2--2--|-----2--2-------------2--|
--0---------------------------0-----0--0-----0--0--|-----0--0-------------0--|


  PM PM    PM PM    PM PM       PM PM
  E  E  E  E  E  E  E  E     E  E  E  E  Q      Q
--------------------------|---------------------------|
--------------------------|---------------------------|
--------------------------|--------------7S----12\----|
--------------------------|--------------7S----12\----|
--2--2-----2--2-----2--2--|-----2--2-----5S----10\----|
--0--0-----0--0-----0--0--|-----0--0-----5S----10\----|


  PM PM    PM PM    PM PM       PM PM            PM    PM PM    PM PM    PM PM
  E  E  E  E  E  E  E  E     E  E  E  E  Q    E  E     E  E  E  E  E  E  E  E
--------------------------|-------------------------|--------------------------|
--------------------------|-------------------------|--------------------------|
--------------------------|-------------------------|--------------------------|
--------------------------|-------------------------|--------------------------|
--2--2-----2--2-----2--2--|-----2--2-------------2--|--2--2-----2--2-----2--2--|
--0--0-----0--0-----0--0--|-----0--0-------------0--|--0--0-----0--0-----0--0--|


     PM PM
  E  E  E  E  H           W                   W
-----------------------|-------------------|-------------------|
-----------------------|-------------------|-------------------|
-----------------------|-------------------|-------------------|
-----------------------|-------------------|-------------------|
-----2--2--------------|-------------------|-------------------|
-----0--0--------------|-------------------|-------------------|


  W                   W                   W                   W
-------------------|-------------------|-------------------|-------------------|
-------------------|-------------------|-------------------|-------------------|
-------------------|-------------------|-------------------|-------------------|
-------------------|-------------------|-------------------|-------------------|
-------------------|-------------------|-------------------|-------------------|
-------------------|-------------------|-------------------|-------------------|


  W                   W                   W                   W
-------------------|-------------------|-------------------|-------------------|
-------------------|-------------------|-------------------|-------------------|
-------------------|-------------------|-------------------|-------------------|
-------------------|-------------------|-------------------|-------------------|
-------------------|-------------------|-------------------|-------------------|
-------------------|-------------------|-------------------|-------------------|


  W                   W
-------------------|-------------------||
-------------------|-------------------||
-------------------|-------------------||
-------------------|-------------------||
-------------------|-------------------||
-------------------|-------------------||


Duration Legend
---------------
W - whole
H - half
Q - quarter
E - 8th
S - 16th
T - 32nd
X - 64th
. - note dotted
|-n-|  - n-tuplets


Tablature Legend
----------------
L - tied note
x - dead note
g - grace note
(n) - ghost note
> - accentuded note
NH - natural harmonic
AH - artificial harmonic
TH - tapped harmonic
SH - semi harmonic
PH - pitch harmonic
h - hammer on
p - pull off
b - bend
br - bendRelease
pb - preBend
pbr - preBendRelease
brb - bendReleaseBend
\n/ - tremolo bar dip
\n - tremolo bar dive
-/n - tremolo bar Release up
/n\ - tremolo bar inverted dip
/n - tremolo bar return
-\n - tremolo bar Release down
S - shift slide
s - legato slide
/ -  slide into from below or out of upwards
\ -  slide into from above or out of downwards
~ - vibrato
W - wide vibrato
tr - trill
TP - tremolo picking
T - tapping
S - slap
P - pop
< - fade in
^ - brush up
v - brush down
Tab by:  Mortuary Slayer
Tap to rate this tab
# A B C D E F G H I J K L M N O P Q R S T U V W X Y Z