Song name
# A B C D E F G H I J K L M N O P Q R S T U V W X Y Z

John 5 - Sounds Of Impalement tab

-------------------------------------------------------------------------------
		  Sounds of Impalement - John 5
-------------------------------------------------------------------------------
Tabbed by: syslipornson D
Email:anuozkast@aol.com

Tuning: normal

e|--------------------------------------------------------------------------|
B|--------------------------------------------------------------------------|
G|---------9-9--9-9--9-9----------------------------------------------------|
D|-3-2-2---8-8--8-8--8-8----------------------------------------------------|
A|-3-2-2---7-7--7-7--7-7----------------------------------------------------|
E|-1-0-0--------------------------------------------------------------------|
Guitar#1 X4

e|--------12^--12^--12^-----------12^--15^--12^-----------------------------|
B|--------15^--15^--15^-----------15^--18^--15^-----------------------------|
G|--------------------------------------------------------------------------|
D|-15-14-------------------15-14--------------------------------------------|
A|--------------------------------------------------------------------------|
E|--------------------------------------------------------------------------|
Guitar#2 X2 (start after guitar 1 plays 4 times)
(after guitar 1 plays 4 times, continue to play with guitar2) 

Well that the intro so far 
i just got the new CD n thats wat my teacher n I came up with
:D enjoy
if wrong email me
Tap to rate this tab
# A B C D E F G H I J K L M N O P Q R S T U V W X Y Z