Song name
# A B C D E F G H I J K L M N O P Q R S T U V W X Y Z

John 5 - Black Widow Of La Porte tab

#----------------------------------PLEASE NOTE---------------------------------#
#This file is the author's own work and represents their interpretation of the #
#song. You may only use this file for private study, scholarship, or research. #
#------------------------------------------------------------------------------#

BLACK WIDOW OF LA PORTE
As recorded by John 5
(From the 2007 Album THE DEVIL KNOWS MY NAME)

Transcribed by tondeafidiot
	

Words and Music by John 5

Gtr I (E A D G B E) - 'Clean w/ Fingers and Chorus'
Gtr II (E A D G B E) - 'Distortion'
Gtr III (E A D G B E) - 'Distortion 2'
Gtr IV (E A D G B E) - 'Distortion 3'
Gtr V (B E A D Gb B) - 'De-Tuned 1'
Gtr VI (Db Gb B E Ab Db) - 'De-Tuned 2'

 A
  Moderately Q=119
 1/4  4/4
  Gtr I
  Q    E E E E E E E E   E E E E Q  Q
|----|-----------------|---------------|
|----|-----------------|---------------|
|----|-------0---------|---0-----------|
|----|-2p0h2---2---2p0h|=2---2------0--|
|----|-----------------|---------2-----|
|----|-0---------0-----|-------0-------|


  E E E E E E Q    +W           E E E E E E E E   E E E E Q  Q
|----------------|------------|-----------------|---------------|
|-------------0--|-(0)--------|-----------------|---------------|
|-------0-----3--|-(3)--------|-------0---------|---0-----------|
|-2p0h2---2------|------------|-2p0h2---2---2p0h|=2---2------0--|
|----------------|------------|-----------------|---------2-----|
|-0---------0----|------------|-0---------0-----|-------0-------|


                                B
                                 Faster Q=181
                                2/4  4/4
                                 Gtr II
                                        PM----------|
  E E E E E E Q    +W            H    E E E E E E E E
|----------------|------------||----|-----------------|
|-------------0--|-(0)--------||----|-----------------|
|-------0-----3--|-(3)--------||----|-----------------|
|-2p0h2---2------|------------||----|-----------------|
|----------------|------------||----|-2-5-5-6-6-6-7-7-|
|-0---------0----|------------||----|-0-3-3-4-4-4-5-5-|


  PM----|             PM--------------------|
  E E E E E E Q     E E E E E E E E   E E E E E E Q
|-----------------|-----------------|-----------------|
|-----------------|-----------------|-----------------|
|---------7s9-9\--|-----------------|---------7s9-7\--|
|---------7s9-9\--|-----------------|---------7s9-7\--|
|-7-8-8-0-5s7-7\--|-2-5-5-6-6-6-7-7-|-7-8-8-0-5s7-5\--|
|-5-6-6-0---------|-0-3-3-4-4-4-5-5-|-5-6-6-0---------|


  Gtr III
  E  E  E  E  E  E  E  E    E  E  E E  E  E  E  E   E  E  E  E  E  E  E  E
|------------------------|------------------------|------------------------|
|------------------------|------------15s17-17--x-|------------------------|
|-9S12-12S13-13-13S14-14-|-14S15-15-0-----------x-|-9S12-12S13-13-13S14-14-|
|------------------------|----------0-12s14-14--x-|------------------------|
|-7S10-10S11-11-11S12-12-|-12S13-13-0-------------|-7S10-10S11-11-11S12-12-|
|------------------------|------------------------|------------------------|
|
| Gtr II
| E  E  E  E  E  E  E  E    E  E  E E  E  E  Q      E  E  E  E  E  E  E  E
|------------------------|------------------------|------------------------|
|------------------------|------------------------|------------------------|
|------------------------|-------------7s=9--7\---|------------------------|
|------------------------|----------0--7s=9--7\---|------------------------|
|-2--5--5--6--6--6--7--7-|--7--8--8-0--5s=7--5\---|-2--5--5--6--6--6--7--7-|
|-0--3--3--4--4--4--5--5-|--5--6--6-0-------------|-0--3--3--4--4--4--5--5-|


   E  E  E E  E  E  Q      +W                   +W
|-----------------------|--------------------|-------------------|
|------------15s17-17---|-(17)---------------|-(17)--------------|
|-14S15-15-0------------|--------------------|-------------------|
|----------0-12s14-14---|-(14)---------------|-(14)--------------|
|-12S13-13-0------------|--------------------|-------------------|
|-----------------------|--------------------|-------------------|
|
|                           PM-|   PM--|   PM-------|   PM--|
|  E  E  E E  E  E  Q       E  E E E E E E E     E  E E E E E Q
|-----------------------|--------------------|-------------------|
|-----------------------|--------------------|-------------------|
|-------------7s=9--7\--|--------------------|-------------------|
|----------0--7s=9--7\--|--------------------|-------------------|
|--7--8--8-0--5s=7--5\--|---2--2-3-2-2-2-3-2-|---2--2-3-2-2-2-5--|
|--5--6--6-0------------|---0--0-1-0-0-0-1-0-|---0--0-1-0-0-0-3--|


    >
   +W                   +W                  +W
|--------------------|-------------------|--------------------|
|-(17)---------------|-(17)--------------|-(17)---------------|
|--------------------|-------------------|--------------------|
|-(14)---------------|-(14)--------------|-(14)---------------|
|--------------------|-------------------|--------------------|
|--------------------|-------------------|--------------------|
|
|   PM-|   PM--|   PM-------|   PM--------------|   PM--|   PM
|                                 |-3-|
|   E  E E E E E E E     E  E E E Q Q Q      E  E E E E E E E
|--------------------|-------------------|--------------------|
|--------------------|-------------------|--------------------|
|--------------------|-------------------|--------------------|
|--------------------|-------------------|--------------------|
|---2--2-3-2-2-2-3-2-|---2--2-3-2-5-4-3--|---2--2-3-2-2-2-3-2-|
|---0--0-1-0-0-0-1-0-|---0--0-1-0-3-2-1--|---0--0-1-0-0-0-1-0-|


   +W                  +W                  W
|-------------------|--------------------|------||
|-(17)--------------|-(17)---------------|------||
|-------------------|--------------------|------||
|-(14)--------------|-(14)---------------|------||
|-------------------|--------------------|------||
|-------------------|--------------------|------||
|
|   PM-|   PM--|        PM-|   PM--|
|   E  E E E E E Q      E  E E E E E E E   W
|-------------------|--------------------|------||
|-------------------|--------------------|------||
|-------------------|--------------------|------||
|-------------------|--------------------|------||
|---2--2-3-2-2-2-5--|---2--2-3-2-2-2-3-2-|------||
|---0--0-1-0-0-0-3--|---0--0-1-0-0-0-1-0-|------||


 C
      |--3--|            |-3--|     |-3-|
  S S S S   S S S  S  S  S  S S S S S S S S S
|---------------------------------------------|
|-5-7-8p7p==5-7-8-/8-10-11p10p8S5-7-8p7p5-7-8-|
|---------------------------------------------|
|---------------------------------------------|
|---------------------------------------------|
|---------------------------------------------|
|
| PM------|                               PM---
| S S S   S   E    Q            E   E     E
|---------------------------------------------|
|---------------------------------------------|
|---------------------------------------------|
|-------------2-----------------2-------------|
|-------------2-----------------2---------2---|
|-0-0-0---0---0-----------------0---------0---|


         |--3---|        |--3--|       |--3---|        |--3--|
   S  S  S  S   S  S  S  S  S  S S  S  S  S   S  S  S  S  S  S
|---------------------------------------------------------------|
|-/8-10-11p10p==8S10-12-13p12p10S8-10-11p10p==8S10-12-13p12p10--|
|---------------------------------------------------------------|
|---------------------------------------------------------------|
|---------------------------------------------------------------|
|---------------------------------------------------------------|
|
|-------------|                  PM---------|
|  S  S  S    S    E     E       S  S  S    S    E     E
|---------------------------------------------------------------|
|---------------------------------------------------------------|
|---------------------------------------------------------------|
|------------------2-----------------------------2--------------|
|------------------2-----------------------------2--------------|
|--0--0--0----0----0-------------0--0--0----0----0--------------|


        |--3---|               |--3--|       |-3--|
  S  S  S  S   S  S  S   S  S  S  S  S S  S  S  S S  S  S
|---------------------------------------------------------|
|-8-10-11p10p==8-10-11-/11-13-14p13p11S8-10-11p10p8S11-13-|
|---------------------------------------------------------|
|---------------------------------------------------------|
|---------------------------------------------------------|
|---------------------------------------------------------|
|
| PM---------|                                       PM----
| S  S  S    S    E      Q             E     E       E
|---------------------------------------------------------|
|---------------------------------------------------------|
|---------------------------------------------------------|
|-----------------5--------------------5------------------|
|-----------------5--------------------5------------------|
|-3--3--3----3----3--------------------3-------------0----|


   |---3---|        |--3--|
   S  S    S  S  S  S  S  S  S  S  Q           +E      E
|---------------------------------------------------------|
|-14p13p==11S13-15-16p15p13S15-16-18b20r======(18)b20\----|
|---------------------------------------------------------|
|---------------------------------------------------------|
|---------------------------------------------------------|
|---------------------------------------------------------|
|
|---------------|                  PM-------|
|  S    S     S  S  E        E     S    S S S   E      E
|---------------------------------------------------------|
|---------------------------------------------------------|
|---------------------------------------------------------|
|-------------------5---------------------------5---------|
|-------------------5---------------------------5---------|
|--3----3-----3--3--3--------------3----3-3-3---3---------|


  |--3--|       |-3-|     |-3-|     |-3-|
  S S   S  S S  S S S S S S S S S S S S S S S
|-5h7h==8-/7-9-10p9p7S5-7-8p7p5-5-------------|
|---------------------------------8-8p7p5S7-9-|
|---------------------------------------------|
|---------------------------------------------|
|---------------------------------------------|
|---------------------------------------------|
|
| PM---------|                            PM---
| S   S    S S  E     Q         E   E     E
|---------------------------------------------|
|---------------------------------------------|
|---------------------------------------------|
|---------------7---------------7-------------|
|---------------7---------------7-------------|
|-5---5----5-5--5---------------5---------0---|


   |--3--|     |-3-|
   S S   S S S S S S S S S S S S E E
|------------------------------------|
|-10p9p==7S5-7-8p7p5-5-5-------------|
|------------------------8-7-5-5-7-7-|
|------------------------------------|
|------------------------------------|
|------------------------------------|
|
|------------|           PM----|
|  S   S   S S E     E   S S S S E E
|------------------------------------|
|------------------------------------|
|------------------------------------|
|--------------7-----------------7---|
|--------------7-----------------7---|
|--5---5---5-5-5---------5-5-5-5-5---|


  ~~~~
                                 |---------3---------|
  H.                +E.   +S     Q        +Q        +Q      +Q          +Q
|-----------------------------|------------------------------------------------|
|-----------------------------|------------------------------------------------|
|-7b9===============(7)r==(7)-|-[7]b9r====(7)b9r====(7)b9r==(7)b9-------(7)\---|
|-----------------------------|------------------------------------------------|
|-----------------------------|------------------------------------------------|
|-----------------------------|------------------------------------------------|
|
| PM-------|            PM----------------------|            PM-------|
| S    S S S E Q  E  E  E        S    S S       S E       E  S    S S S  E   E
|-----------------------------|------------------------------------------------|
|-----------------------------|------------------------------------------------|
|-----------------------------|------------------------------------------------|
|------------2----2-----------|-------------------2----------------------2-----|
|------------2----2-----2-----|-------------------2----------------------2-----|
|-0----0-0-0-0----0-----0-----|--0----0-0-------0-0----------0----0-0-0--0-----|


      |--3--|            |-3--|               |--3--|
  S S S S   S S S  S  S  S  S S  S  S   S  S  S  S  S
|-----------------------------------------------------|
|-5-7-8p7p==5-7-8-/8-10-11p10p8-10-11-/10-12-13p12p10S|
|-----------------------------------------------------|
|-----------------------------------------------------|
|-----------------------------------------------------|
|-----------------------------------------------------|
|
| PM------|                                   PM-------
| S S S   S   E    Q             E      E     E
|-----------------------------------------------------|
|-----------------------------------------------------|
|-----------------------------------------------------|
|-------------2------------------2--------------------|
|-------------2------------------2------------2-------|
|-0-0-0---0---0------------------0------------0-------|


      |--3--|            |--3---|               |--3--|
  S S S S   S S S  S  S  S  S   S  S  S   S  S  S  S  S
|----------------------------------------------------------|
|-5-7-8p7p==5-7-8-/8-10-11p10p==8-10-11-/10-12-13p12p10S===|
|----------------------------------------------------------|
|----------------------------------------------------------|
|----------------------------------------------------------|
|----------------------------------------------------------|
|
|---------|              PM----------|
| S S S   S   E    E     S    S    S  S   E     E
|----------------------------------------------------------|
|----------------------------------------------------------|
|----------------------------------------------------------|
|-------------2---------------------------2----------------|
|-------------2---------------------------2----------------|
|-0-0-0---0---0----------0----0----0--0---0----------------|


        |--3---|               |--3--|               |--3--|
  S  S  S  S   S  S  S   S  S  S  S  S  S  S   S  S  S  S  S
|------------------------------------------------------------|
|-8-10-11p10p==8-10-11-/11-13-14p13p11-13-14-/13-15-16p15p13S|
|------------------------------------------------------------|
|------------------------------------------------------------|
|------------------------------------------------------------|
|------------------------------------------------------------|
|
| PM---------|                                       PM-------
| S  S  S    S    E      Q              E      E     E
|------------------------------------------------------------|
|------------------------------------------------------------|
|------------------------------------------------------------|
|-----------------5---------------------5--------------------|
|-----------------5---------------------5--------------------|
|-3--3--3----3----3---------------------3------------0-------|


        |--3---|               |---3---|               |--3--|
  S  S  S  S   S  S  S   S  S  S  S    S  S  S   S  S  S  S  S
|-----------------------------------------------------------------|
|-8-10-11p10p==8-10-11-/11-13-14p13p==11-13-14-/13-15-16p15p13\---|
|-----------------------------------------------------------------|
|-----------------------------------------------------------------|
|-----------------------------------------------------------------|
|-----------------------------------------------------------------|
|
|------------|                 PM-----------|
| S  S  S    S    E      E     S    S     S  S   E     E
|-----------------------------------------------------------------|
|-----------------------------------------------------------------|
|-----------------------------------------------------------------|
|-----------------5------------------------------5----------------|
|-----------------5------------------------------5----------------|
|-3--3--3----3----3------------3----3-----3--3---3----------------|


   a  E    S  S  a  E  E  E  E  E  S  S
|---------------------------------------|
|---------------------------------12h16p|
|---------------------12-14-12-14-------|
|---------10-10-12s14-------------------|
|-10s12---------------------------------|
|---------------------------------------|
|
|     PM-----|                     PM----
|     S S  S  S     E  Q     E  E  E
|---------------------------------------|
|---------------------------------------|
|---------------------------------------|
|-------------------7--------7----------|
|-------------------7--------7----------|
|-----5-5--5--5-----5--------5-----0----|


               |------5------|  |--------5--------|
   S  S  S  S  S  S  S    S  S  S  S    S    S    S  S  S  E
|------------------------------------------------------------|
|-12----12h16p12----12h==16p12----12h==16p==12------12h15p12-|
|----14----------14------------14----------------14----------|
|------------------------------------------------------------|
|------------------------------------------------------------|
|------------------------------------------------------------|
|
|----------|                    PM-------------|
|  S  S  S  S  E       E        S    S    S    S     E     E
|------------------------------------------------------------|
|------------------------------------------------------------|
|------------------------------------------------------------|
|--------------7-------------------------------------7-------|
|--------------7-------------------------------------7-------|
|--5--5--5--5--5----------------5----5----5----5-----5-------|


                                                             ~~~~~
                                 |---------3---------|
   H               H             Q         Q         Q       H
|-----------------------------|---------------------------------------------||
|-15b17-----------15b17-------|-15b17-----15b17-----15b17---15b17-----------||
|-----------------------------|---------------------------------------------||
|-----------------------------|---------------------------------------------||
|-----------------------------|---------------------------------------------||
|-----------------------------|---------------------------------------------||
|
| Gtr IV
|  W                             W
|-----------------------------|---------------------------------------------||
|-----------------------------|---------------------------------------------||
|-----------------------------|---------------------------------------------||
|-----------------------------|---------------------------------------------||
|-----------------------------|---------------------------------------------||
|-----------------------------|---------------------------------------------||
|
| Gtr II
|  PM-------|               PM------------------|            PM-------|
|  S    S S S E Q       E E E    S    S S       S E       E  S    S S S E E
|-----------------------------|---------------------------------------------||
|-----------------------------|---------------------------------------------||
|-----------------------------|---------------------------------------------||
|-------------2---------2-----|-------------------2---------------------2---||
|-------------2---------2---2-|-------------------2---------------------2---||
|--0----0-0-0-0---------0---0-|--0----0-0-------0-0----------0----0-0-0-0---||


 D
  a E E E  E  E  E E E    E   E  Q   E E  E  S S
|----------------------|---------------------------|
|----------------------|---------------------------|
|-7s9-7-9S12-12-12S9-7-|--9S=12-12S==4-4S=7--7-7---|
|----------------------|---------------------------|
|----------------------|---------------------------|
|----------------------|---------------------------|
|
|   W                    +H.             +Q
|----------------------|---------------------------|
|----------------------|---------------------------|
|---4------------------|-(4)-------------(4)S======|
|----------------------|---------------------------|
|---2------------------|-(2)-------------(2)S======|
|----------------------|---------------------------|
|
|       PM---------------|       PM|   PM    PM
|   Q   E  E  E  E E E    E   E  E E E E  E  E
|----------------------|---------------------------|
|----------------------|---------------------------|
|----------------------|---------------------------|
|---2------------------|------2------2----2--------|
|---2---2--2--2--2-2-2-|--2---2--2-2-2-2--2--------|
|---0---0--0--0--0-0-0-|--0---0--0-0-0-0--0--0-----|


  E E E  E  E  E E E    E   E  E E   E  +E      +E   +E    E E E  E  E  E E E
|--------------------|-----------------------------------|--------------------|
|--------------------|-----------------------------------|--------------------|
|-9-7-9S12-12-12S9-7-|--9S=12-12-9-/15-(15)b17-(15)-(15)S|=9-7-9S12-12-12S9-7-|
|--------------------|-----------------------------------|--------------------|
|--------------------|-----------------------------------|--------------------|
|--------------------|-----------------------------------|--------------------|
|
| W                    +H.                      +Q         W
|--------------------|-----------------------------------|--------------------|
|--------------------|-----------------------------------|--------------------|
|-7------------------|-(7)----------------------(7)S=====|=9------------------|
|--------------------|-----------------------------------|--------------------|
|-5------------------|-(5)----------------------(5)S=====|=7------------------|
|--------------------|-----------------------------------|--------------------|
|
|     PM---------------|       PM|       PM           PM       PM-----------|
| Q   E  E  E  E E E    E   E  E E   E   E       E    E    Q   E  E  E  E E E
|--------------------|-----------------------------------|--------------------|
|--------------------|-----------------------------------|--------------------|
|-7------------------|------7--------7-----------7-------|--------------------|
|-7------------------|------7--------7-----------7-------|-7------------------|
|-5---5--5--5--5-5-5-|--5---5--5-5---5---5-------5----5--|-5---7--7--7--7-7-7-|
|-5---5--5--5--5-5-5-|--5---5--5-5---5---5-------5----5--|-5---5--5--5--5-5-5-|


   E   E  S S S S  S S S  S  S  S S S   E E E  E  E  E Q
|-------------7h9h10p9p7--------------|---------------------|
|------------------------10p=8p=7-----|---------------------|
|--9S=12-12s0---------------------9p7-|-9-7-9S12-12-12-9/---|
|-------------------------------------|---------------------|
|-------------------------------------|---------------------|
|-------------------------------------|---------------------|
|
| +H.                       +Q          W
|-------------------------------------|---------------------|
|-------------------------------------|---------------------|
|-(9)-----------------------(9)S======|=4-------------------|
|-------------------------------------|---------------------|
|-(7)-----------------------(7)S======|=2-------------------|
|-------------------------------------|---------------------|
|
|  PM     PM--|        PM                   PM---------------
|  E   E  E   E    E   E     E    E     Q   E  E  E  E E  E
|-------------------------------------|---------------------|
|-------------------------------------|---------------------|
|-------------------------------------|---------------------|
|------7-----------7---------7\-------|-2-------------------|
|--7---7--7---7----7---7-----7\---x---|-2---2--2--2--2-2--2-|
|--5---5--5---5----5---5-----5\---x---|-0---0--0--0--0-0--0-|


          PM------|         PM------|
   S   S  S  S  S  S  S  S  S  S  S  S  Q
|--------------------------------------------|
|-17p=14-------------17p14-------------17\---|
|--------15-15-15-15-------15-15-15-15-------|
|--------------------------------------------|
|--------------------------------------------|
|--------------------------------------------|
|
| +E      E     Q           E     E     Q
|--------------------------------------------|
|--------------------------------------------|
|-(4)-----5-----------------5-----------5----|
|--------------------------------------------|
|-(2)-----3-----------------3-----------3----|
|--------------------------------------------|
|
|-|             PM---|            PM
|  E      E     E     E     E     E     Q
|--------------------------------------------|
|--------------------------------------------|
|--------------------------------------------|
|--------------------------------------------|
|--2------3-----------------3-----------3----|
|--0------1-----0-----0-----1-----0-----1----|


  Gtr II
  PM|   PM--|   PM----|   PM--|      PM|   PM--|   PM----|   PM--|
  E E E E E E E E   E E E E E E Q    E E E E E E E E   E E E E E E Q
|-----------------|----------------|-----------------|----------------|
|-----------------|----------------|-----------------|----------------|
|-----------------|----------------|-----------------|----------------|
|-----------------|----------------|-----------------|----------------|
|-2-2-3-2-2-2-3-2-|-2-2-3-2-2-2-5--|-2-2-3-2-2-2-3-2-|-2-2-3-2-5-4-3--|
|-0-0-1-0-0-0-1-0-|-0-0-1-0-0-0-3--|-0-0-1-0-0-0-1-0-|-0-0-1-0-3-2-1--|


  PM|   PM--|   PM----|   PM--|      PM|   PM--|
  E E E E E E E E   E E E E E E Q    E E E E E E E E   W
|-----------------|----------------|-----------------|------||
|-----------------|----------------|-----------------|------||
|-----------------|----------------|-----------------|------||
|-----------------|----------------|-----------------|------||
|-2-2-3-2-2-2-3-2-|-2-2-3-2-2-2-5--|-2-2-3-2-2-2-3-2-|------||
|-0-0-1-0-0-0-1-0-|-0-0-1-0-0-0-3--|-0-0-1-0-0-0-1-0-|------||


 E
  Gtrs III, IV
             |3-|                   |3-|
   S S S T T E  Q    S  S  S  T  T  E  Q
|-10p7-------7-10S==15p12----------12-15---|
|------7---8--------------12----12---------|
|--------9-------------------12------------|
|------------------------------------------|
|------------------------------------------|
|------------------------------------------|
|
| Gtr II
|  PM----|                               PM-
|  S S S S   E    Q        E        E    E
|------------------------------------------|
|------------------------------------------|
|------------------------------------------|
|------------2-------------2---------------|
|------------2-------------2-------------2-|
|--0-0-0-0---0-------------0-------------0-|


                       ~~~
   Q        E     +E   Q.          +E
|-17-------20b22r(20)-------------------|
|---------------------17----------(17)\-|
|---------------------------------------|
|---------------------------------------|
|---------------------------------------|
|---------------------------------------|
|
|--------|             PM-----|
|  S S S S  E      E   S  S S S E   E
|---------------------------------------|
|---------------------------------------|
|---------------------------------------|
|-----------2-------------------2-------|
|-----------2-------------------2-------|
|--0-0-0-0--0----------0--0-0-0-0-------|


                  |3-|
   S  S  S  T  T  E  Q    S  S  S  T  T  E  E
|-13p10----------19-13S==18p15----------15-18S|
|-------10----11---------------15----15-------|
|----------12---------------------15----------|
|---------------------------------------------|
|---------------------------------------------|
|---------------------------------------------|
|
|  PM------|                                PM-
|  S  S  S  S     E    Q        E        E  E
|---------------------------------------------|
|---------------------------------------------|
|---------------------------------------------|
|-----------------5-------------5-------------|
|-----------------5-------------5-------------|
|--3--3--3--3-----3-------------3-----------0-|


         |---3---|  |--3--|
   S  S  S  S    S  S  S  S  S  S  E       +E     E  T T T T
|-10h12h13p12p==10-----------------------------------------5-|
|------------------13p12p10------------------------------5---|
|---------------------------12-10-12b14r==(12)---10\---5-----|
|----------------------------------------------------7-------|
|------------------------------------------------------------|
|------------------------------------------------------------|
|
|-------------|                    PM----------|
|  S  S  S    S     E        E     S    S   S  S  E  E
|------------------------------------------------------------|
|------------------------------------------------------------|
|------------------------------------------------------------|
|-------------------5-----------------------------5----------|
|-------------------5-----------------------------5----------|
|--3--3--3----3-----3--------------3----3---3--3--3----------|


                                                      |-3-|
  E   T T T T E T T T T E T T T T E S S   S S S S S S S S S E     +E    Q
|-8---------5-8-------5-8-------5-8-5h7h|=8p7p5-----------------------------|
|---------5---------5---------5---------|-------8p7p5-----------------------|
|-------5---------5---------5-----------|-------------8p7p5-7b9r==(7)---5---|
|-----7---------7---------7-------------|-----------------------------------|
|---------------------------------------|-----------------------------------|
|---------------------------------------|-----------------------------------|
|
| PM------|                         PM----------|           PM--------|
| S S S   S   E Q         E       E E     S S S S E   E     S   S  S  S E E
|---------------------------------------|-----------------------------------|
|---------------------------------------|-----------------------------------|
|---------------------------------------|-----------------------------------|
|-------------7-----------7-------------|---------7---------------------7---|
|-------------7-----------7-------------|---------7---------------------7---|
|-5-5-5---5---5-----------5---------0---|-5-5-5-5-5---------5---5--5--5-5---|


                              |---------3---------|
   H.                +Q       Q        +Q        +Q      +Q          +Q
|--------------------------|------------------------------------------------|
|--------------------------|------------------------------------------------|
|-[7]b9--------------(7)---|-[7]b9r====(7)b9r====(7)b9r==(7)b9-------(7)\---|
|--------------------------|------------------------------------------------|
|--------------------------|------------------------------------------------|
|--------------------------|------------------------------------------------|
|
| Gtr IV
|                             |---------3---------|
|  H.                +Q       Q        +Q        +Q      +Q          +Q
|--------------------------|------------------------------------------------|
|--------------------------|------------------------------------------------|
|--7b9---------------(7)---|--7b9r=====(7)b9r====(7)b9r==(7)b9-------(7)\---|
|--------------------------|------------------------------------------------|
|--------------------------|------------------------------------------------|
|--------------------------|------------------------------------------------|
|
| Gtr II
|  PM-------|            PM------------------|            PM-------|
|  S    S S S E Q  E  E  E    S    S S       S E       E  S    S S S  E   E
|--------------------------|------------------------------------------------|
|--------------------------|------------------------------------------------|
|--------------------------|------------------------------------------------|
|-------------2----2-------|-------------------2----------------------2-----|
|-------------2----2-----2-|-------------------2----------------------2-----|
|--0----0-0-0-0----0-----0-|--0----0-0-------0-0----------0----0-0-0--0-----|


  PM--|      PM
                    |-3-|
  E   E    E E S S  S S S E E
|------------------------------|
|------------------------------|
|---------10---7h9h10p9p7S5----|
|-----9------9-----------------|
|-7-------------------------5--|
|------------------------------|
|
| PM--|      PM
|                   |-3-|
| E   E    E E S S  S S S E E
|------------------------------|
|------------------------------|
|---------10---7h9h10p9p7S5----|
|-----9------9-----------------|
|-7-------------------------5s=|
|------------------------------|
|
| PM----|                   PM
| S S S S  E Q      E     E E
|------------------------------|
|------------------------------|
|------------------------------|
|----------2--------2----------|
|----------2--------2-------2--|
|-0-0-0-0--0--------0-------0--|


  Gtrs III, IV
      PM     PM                      PM--|        PM
                                                           |--3--|
  E   E    E E S S  S S S  S S S     E    E    E  E  S  S  S  S  S E E
|--------------------------------|-------------------------------------|
|--------------------------------|-------------------------------------|
|---------10----------7h9h10p9p7-|------------13----10h12h13p12p10S8---|
|-----9------9-7h9h10------------|-------12------12--------------------|
|-7------------------------------|-/10-------------------------------8s|
|--------------------------------|-------------------------------------|
|
| Gtr II
| PM----|      PM-----|              PM-----|                        PM-
| S S S S  E E S S  S S E    E       S S  S S  E  Q        E       E E
|--------------------------------|-------------------------------------|
|--------------------------------|-------------------------------------|
|--------------------------------|-------------------------------------|
|----------2------------2--------|-------------5-----------5-----------|
|----------2------------2--------|-------------5-----------5-----------|
|-0-0-0-0--0---0-0--0-0-0--------|---3-3--3-3--3-----------3---------0-|


   PM--|        PM      PM
   E    E    E  E  E    E    Q
|---------------------------------|
|---------------------------------|
|-----------13----13--------13\---|
|------12------12------12---------|
|-10------------------------------|
|---------------------------------|
|
|---------|        PM-----|
|  S S  S S  E  E  S S  S S  E  E
|---------------------------------|
|---------------------------------|
|---------------------------------|
|------------5---------------5----|
|------------5---------------5----|
|--3-3--3-3--3-----3-3--3-3--3----|


              |-3-|
  S S S S S S S S S  E E E   S S   S S S S S S S S S S E   Q
|---------------5h7s10s8-5\-/5h7h|=8p7p5-----------------------|
|-------------5------------------|-------8p7p5-----------------|
|-----------5--------------------|-------------7p5-7s8s7---5---|
|-------5h7----------------------|-----------------------------|
|-----7--------------------------|-----------------------------|
|-5h8----------------------------|-----------------------------|
|
| Gtr IV
|             |-3-|
| S S S S S S S S S  E E E   S S   S S S S S S S S S S E   Q
|---------------5h7s10s8-5\-/5h7h|=8p7p5-----------------------|
|-------------5------------------|-------8p7p5-----------------|
|-----------5--------------------|-------------7p5-7s8s7---5---|
|-------5h7----------------------|-----------------------------|
|-----7--------------------------|-----------------------------|
|-5h8----------------------------|-----------------------------|
|
| Gtr II
| PM----|                    PM----------|         PM----|
| S S S S E   Q        E E   E     S S S S E   E   S S S S E E
|--------------------------------|-----------------------------|
|--------------------------------|-----------------------------|
|--------------------------------|-----------------------------|
|---------7------------7---------|---------7---------------7---|
|---------7------------7---------|---------7---------------7---|
|-5-5-5-5-5------------5-----0---|-5-5-5-5-5-------5-5-5-5-5---|


                             |---------3----------|
  H.                +Q       Q        +Q         +Q       +Q           +Q
|-------------------------|------------------------------------------------------||
|-8b10--------------(8)---|--8b10r====(8)b10r====(8)b10r==(8)b10-------(8)\------||
|-------------------------|------------------------------------------------------||
|-------------------------|------------------------------------------------------||
|-------------------------|------------------------------------------------------||
|-------------------------|------------------------------------------------------||
|
|                            |---------3----------|
| H.                +Q       Q        +Q         +Q       +Q           +Q
|-------------------------|------------------------------------------------------||
|-------------------------|------------------------------------------------------||
|-7b9---------------(7)---|-[7]b9r====(7)b9r=====(7)b9r===(7)b9--------(7)\------||
|-------------------------|------------------------------------------------------||

|-------------------------|------------------------------------------------------||
|-------------------------|------------------------------------------------------||
|
| PM-------|            PM-------------------|             PM--------|
| S    S S S E Q  E  E  E    S    S S        S E        E  S     S S S  E   E
|-------------------------|------------------------------------------------------||
|-------------------------|------------------------------------------------------||
|-------------------------|------------------------------------------------------||
|------------2----2-------|--------------------2------------------------2--------||
|------------2----2-----2-|--------------------2------------------------2--------||
|-0----0-0-0-0----0-----0-|--0----0-0--------0-0-----------0-----0-0-0--0--------||


 F
  E E E  E  E  E E E    E   E  Q   S S E  S  S S S   E E E  E  E  E E E
|--------------------|-----------------------------|--------------------|
|--------------------|-----------------------------|--------------------|
|-9-7-9S12-12-12S9-7-|--9S=12-12S==4-4-4S=7--7-7-7-|-9-7-9S12-12-12S9-7-|
|--------------------|-----------------------------|--------------------|
|--------------------|-----------------------------|--------------------|
|--------------------|-----------------------------|--------------------|
|
| W                    +H.               +Q          W
|--------------------|-----------------------------|--------------------|
|--------------------|-----------------------------|--------------------|
|-4------------------|-(4)---------------(4)S======|=7------------------|
|--------------------|-----------------------------|--------------------|
|-2------------------|-(2)---------------(2)S======|=5------------------|
|--------------------|-----------------------------|--------------------|
|
|     PM---------------|       PM|     PM      PM        PM-----------|
| Q   E  E  E  E E E    E   E  E E E   E  E    E     Q   E  E  E  E E E
|--------------------|-----------------------------|--------------------|
|--------------------|-----------------------------|--------------------|
|--------------------|-----------------------------|-7------------------|
|-2------------------|------2------2------2--------|-7------------------|
|-2---2--2--2--2-2-2-|--2---2--2-2-2---2--2--------|-5---5--5--5--5-5-5-|
|-0---0--0--0--0-0-0-|--0---0--0-0-0---0--0----0---|-5---5--5--5--5-5-5-|


   E   E  E E   E  +E      +E   +E
|-----------------------------------|
|-----------------------------------|
|--9S=12-12-9-/15-(15)b17-(15)-(15)S|
|-----------------------------------|
|-----------------------------------|
|-----------------------------------|
|
| +H.                      +Q
|-----------------------------------|
|-----------------------------------|
|-(7)----------------------(7)S=====|
|-----------------------------------|
|-(5)----------------------(5)S=====|
|-----------------------------------|
|
|  PM     PM|       PM           PM
|  E   E  E E   E   E       E    E
|-----------------------------------|
|-----------------------------------|
|------7--------7-----------7-------|
|------7--------7-----------7-------|
|--5---5--5-5---5---5-------5----5--|
|--5---5--5-5---5---5-------5----5--|


                                 PM----------------|
  E E E  E  E  E E E   E  E  E E S S  S  S  S  S S S
|--------------------|-------------------------------|
|--------------------|-------------------------------|
|-9-7-9S12-12-12S9-7-|-9S12-12S9-----------------7-7-|
|--------------------|----------------------9--9-----|
|--------------------|-----------7-7-10-10-----------|
|--------------------|-------------------------------|
|
| W                    H.                  +Q
|--------------------|-------------------------------|
|--------------------|-------------------------------|
|-9------------------|-9-------------------(9)S======|
|--------------------|-------------------------------|
|-7------------------|-7-------------------(7)S======|
|--------------------|-------------------------------|
|
|     PM---------------|     PM|      PM
| Q   E  E  E  E E E   E  E  E E E    E     E    E
|--------------------|-------------------------------|
|--------------------|-------------------------------|
|--------------------|-------------------------------|
|-7------------------|----7------7----------7\-------|
|-5---7--7--7--7-7-7-|-7--7--7-7-7----7-----7\---x---|
|-5---5--5--5--5-5-5-|-5--5--5-5-5----5-----5\---x---|


                                                                      |--3--|
  E E E  E  E  E  E  S  S    S   S  S  S  S  S  S  S  S  S  S  S  E   S  S  S
|-------------------------|--------------------------------------12\-----------|
|-------------------------|--------------------------12-14-15-15---------------|
|-9-7-9S12-12-12----------|--------------12-15-15-15-----------------------12h=|
|----------------14-12-12-|-12--15-15-15--------------------------------14-----|
|-------------------------|------------------------------------------14--------|
|-------------------------|----------------------------------------------------|
|
| W                         +E      E     Q           E     E     Q
|-------------------------|----------------------------------------------------|
|-------------------------|----------------------------------------------------|
|-4-----------------------|-(4)-----5-----------------5-----------5------------|
|-------------------------|----------------------------------------------------|
|-2-----------------------|-(2)-----3-----------------3-----------3------------|
|-------------------------|----------------------------------------------------|
|
|     PM--------------------|             PM---|            PM
| Q   E  E  E  E  E  E       E      E     E     E     E     E     Q
|-------------------------|----------------------------------------------------|
|-------------------------|----------------------------------------------------|
|-------------------------|----------------------------------------------------|
|-2-----------------------|----------------------------------------------------|
|-2---2--2--2--2--2--2----|--2------3-----------------3-----------3------------|
|-0---0--0--0--0--0--0----|--0------1-----0-----0-----1-----0-----1------------|


      T                                T
                        |--3--|        |--3--|
   S  S  T  T  T  T  S  T  T  T  S  S  S  S  S  S  S  a  Q
|-------------------------------12h15-17p15p14p13p12-14s20b22====|
|----------------------------12----------------------------------|
|-15-17p15p14p13p12-------12-------------------------------------|
|-------------------15-15----------------------------------------|
|----------------------------------------------------------------|
|----------------------------------------------------------------|
|
|  PM-------------------------------------------------------------
|  E     E           E           E     E        E        E     E
|----------------------------------------------------------------|
|----------------------------------------------------------------|
|----------------------------------------------------------------|
|----------------------------------------------------------------|
|--7-----7-----------7-----------6-----6--------6--------5-----5-|
|----------------------------------------------------------------|
|
|        PM-------------------------------------------------------
|  E     E           E           E     E        E        E     E
|----------------------------------------------------------------|
|----------------------------------------------------------------|
|----------------------------------------------------------------|
|----------------------------------------------------------------|
|--2-----5-----------5-----------6-----6--------6--------7-----7-|
|--0-----3-----------3-----------4-----4--------4--------5-----5-|


         ~~~
                         |--3--|
   S  S  Q.      Q   E   S  S  S
|-20r20----------------------------|
|-------18------17\----------------|
|-----------------------------12h==|
|--------------------------14------|
|-----------------------14---------|
|----------------------------------|
|
|-----------------------|
|  E     E  E E  E E E   E
|----------------------------------|
|----------------------------------|
|----------------------------------|
|----------------------------------|
|--5-----5--5-5--4-4-3---2---------|
|----------------------------------|
|
|-------------|
|  E     E  E E  E E Q
|----------------------------------|
|----------------------------------|
|----------------7s9-7\------------|
|----------------7s9-7\------------|
|--7-----8--8-0--5s7-5\------------|
|--5-----6--6-0--------------------|


      T                                T
                        |--3--|        |--3--|
   S  S  T  T  T  T  S  T  T  T  S  S  S  S  S  S  S  a  Q
|-------------------------------12h15-17p15p14p13p12-14s20b22====|
|----------------------------12----------------------------------|
|-15-17p15p14p13p12-------12-------------------------------------|
|-------------------15-15----------------------------------------|
|----------------------------------------------------------------|
|----------------------------------------------------------------|
|
|  PM-------------------------------------------------------------
|  E     E           E           E     E        E        E     E
|----------------------------------------------------------------|
|----------------------------------------------------------------|
|----------------------------------------------------------------|
|----------------------------------------------------------------|
|--7-----7-----------7-----------6-----6--------6--------5-----5-|
|----------------------------------------------------------------|
|
|        PM-------------------------------------------------------
|  E     E           E           E     E        E        E     E
|----------------------------------------------------------------|
|----------------------------------------------------------------|
|----------------------------------------------------------------|
|----------------------------------------------------------------|
|--2-----5-----------5-----------6-----6--------6--------7-----7-|
|--0-----3-----------3-----------4-----4--------4--------5-----5-|


         ~~~
   S  S  Q.      Q   Q
|-20r20-------------------|
|-------18------17--------|
|-------------------------|
|-------------------------|
|-------------------------|
|-------------------------|
|
|-----------------------|
|  E     E  E E  E E E  E
|-------------------------|
|-------------------------|
|-------------------------|
|-------------------------|
|--5-----5--5-5--4-4-3--2-|
|-------------------------|
|
|-------------|
|  E     E  E E  E E Q
|-------------------------|
|-------------------------|
|----------------7s9-7\---|
|----------------7s9-7\---|
|--7-----8--8-0--5s7-5\---|
|--5-----6--6-0-----------|


  Q.     Q.     Q     +E  Q.     E E Q
|-------------------|---------------------|
|-------------------|---------------------|
|-9------9------9---|-(9)-9------7s9-9\---|
|-------------------|---------------------|
|-------------------|---------------------|
|-------------------|---------------------|
|
| PM---------------------------------------
| E  E E E  E E E E    E  E  E E E E E  E
|-------------------|---------------------|
|-------------------|---------------------|
|-------------------|---------------------|
|-------------------|---------------------|
|-7--7-7-6--6-6-5-5-|--5--5--5-5-4-4-3--2-|
|-------------------|---------------------|
|
| E  E E E  E E E E    E  E  E E E E Q
|-------------------|---------------------|
|-------------------|---------------------|
|-------------------|------------7s9-7\---|
|-------------------|----------0-7s9-7\---|
|-2--5-5-6--6-6-7-7-|--7--8--8-0-5s7-5\---|
|-0--3-3-4--4-4-5-5-|--5--6--6-0----------|


  Q.     Q.     Q     +E  Q.     E E Q
|-------------------|---------------------||
|-------------------|---------------------||
|-9------9------9---|-(9)-9------7s9-9\---||
|-------------------|---------------------||
|-------------------|---------------------||
|-------------------|---------------------||
|
|---------------------------------------|
| E  E E E  E E E E    E  E  E E E E E  E
|-------------------|---------------------||
|-------------------|---------------------||
|-------------------|---------------------||
|-------------------|---------------------||
|-7--7-7-6--6-6-5-5-|--5--5--5-5-4-4-3--2-||
|-------------------|---------------------||
|
| E  E E E  E E E E    E  E  E E E E Q
|-------------------|---------------------||
|-------------------|---------------------||
|-------------------|------------7s9-7\---||
|-------------------|----------0-7s9-7\---||
|-2--5-5-6--6-6-7-7-|--7--8--8-0-5s7-5\---||
|-0--3-3-4--4-4-5-5-|--5--6--6-0----------||


 G
                      ~~~                       ~~~~
   Q        +E   +E   Q.      E    E  E  E  E  +Q.     S  S
|-------------------------------|----------------------------|
|-------------------------------|----------------------------|
|-17b19====(17)r(17)-16------14s|=16s14s19s16-(16)----14h16h=|
|-------------------------------|----------------------------|
|-------------------------------|----------------------------|
|-------------------------------|----------------------------|
|
| Gtr V
|  E     E   Q        E  E E  E    E  E  E  E   E E E  E
|-------------------------------|----------------------------|
|-------------------------------|----------------------------|
|-------------------------------|----------------------------|
|-------------------------------|----------------------------|
|--5-----7---7\-----------------|----------------------------|
|------------------------0----0-|--3p=0--x--x---1p0-x--0-----|


                                          ~~~
   E  E  E   E  S  S  S  S  S  S  S  S    H        Q   S S S S
|--------------13h16-------------------|-----------------------|
|--------------------17h18-15h17-------|-----------------------|
|-17-16-14-----------------------17h19-|-16--------------------|
|-----------18-------------------------|-------------------5h7-|
|--------------------------------------|---------------5-5-----|
|--------------------------------------|----------19\----------|
|
|  E  E  Q      E     E     E     E       E E E E  E E E   E
|--------------------------------------|-----------------------|
|--------------------------------------|-----------------------|
|--------------------------------------|-----------------------|
|--------------------------------------|-----------------------|
|--5--7--7\----------------------------|-----------------------|
|---------------------0-----------0----|--3p0-x-x--1p0-x---0---|


                           |--3--| |--3--|
  S S S S  S  S  S  S S  S S  S  S S  S  S E
|--------------------------------------------|
|--------------------------------------------|
|---------------------9------------9h10h12-9S|
|-9-7-5-------9-10s12---12-9h10h12-----------|
|-------8S12---------------------------------|
|--------------------------------------------|
|
| E   E    Q          E    E       E       E
|--------------------------------------------|
|--------------------------------------------|
|--------------------------------------------|
|--------------------------------------------|
|-5---7----7\--------------------------------|
|--------------------------0---------------0-|


         |--3--|
   S  S  S  S  S  E   S  S  S  S  S  S  S  S  S  S
|--------------------------------------------------|
|--------------------------------------------------|
|-16-14--------------16-17-19-17-16----------------|
|-------17p15p14-15/----------------19S17-15-14-14-|
|--------------------------------------------------|
|--------------------------------------------------|
|
|  E     E        E   E     E     E     E     E
|--------------------------------------------------|
|--------------------------------------------------|
|--------------------------------------------------|
|--------------------------------------------------|
|--------------------------------------------------|
|--3p====0--------x---x-----1p====0-----x-----0----|


   |------5------|
   S  S  S    S  S  S   S  S  S  S  S  S  S  S  S  S  S
|-------------------------------------------------------|
|-------------------------------------------------------|
|-14h15p14h==15p14--------------------------------------|
|------------------17p=15p14h15p14h15-------------------|
|-------------------------------------17p15p14h15p14----|
|----------------------------------------------------17-|
|
| Gtr IV
|  W
|-------------------------------------------------------|
|-------------------------------------------------------|
|-------------------------------------------------------|
|-------------------------------------------------------|
|-------------------------------------------------------|
|-------------------------------------------------------|
|
| Gtr V
|  E       E        Q            E     E     E     E
|-------------------------------------------------------|
|-------------------------------------------------------|
|-------------------------------------------------------|
|-------------------------------------------------------|
|--5-------7--------7\----------------------------------|
|--------------------------------------0-----------0----|


   Q    +Q      Q   E   S  S
|----------------------12h15-|
|----------------------------|
|--------------/9---9\-------|
|----------------------------|
|----------------------------|
|-12---(12)\-----------------|
|
|  H.               E   S  S
|-----------------------7h10-|
|----------------------------|
|----------------------------|
|----------------------------|
|----------------------------|
|----------------------------|
|
|  E E   E   E  E E E   E
|----------------------------|
|----------------------------|
|----------------------------|
|----------------------------|
|----------------------------|
|--3p0---x---x--1p0-x---0----|


   T           T            T           T           T           T
   |------6-------|         |--3--|  |--3--|        |--3--|
   S  S  S  S  S  S  S   S  S  S  S  S  S  S  S  S  S  S  S  S  S
|-17p15p13p12--------------19p15p13p12-------------17p15p13p12----|
|-------------17p15p13p=12-------------19p15p13p12-------------17p|
|-----------------------------------------------------------------|
|-----------------------------------------------------------------|
|-----------------------------------------------------------------|
|-----------------------------------------------------------------|
|
|  T           T            T           T           T           T
|  |------6-------|         |--3--|  |--3--|        |--3--|
|  S  S  S  S  S  S  S   S  S  S  S  S  S  S  S  S  S  S  S  S  S
|-12p10p=8p=7--------------14p10p=8p=7-------------12p10p=8p=7----|
|-------------12p10p=8p==7-------------14p10p=8p=7-------------12p|
|-----------------------------------------------------------------|
|-----------------------------------------------------------------|
|-----------------------------------------------------------------|
|-----------------------------------------------------------------|
|
|  E        E        Q               E        E     E        E
|-----------------------------------------------------------------|
|-----------------------------------------------------------------|
|-----------------------------------------------------------------|
|-----------------------------------------------------------------|
|--5--------7--------7\-------------------------------------------|
|---------------------------------------------0--------------0----|


            T           T           T        T
   |------6-------|        |--3--|  |------6-------|
   S  S  S  S  S  S  S  S  S  S  S  S  S  S  S  S  S  E  S  S
|----------19p15p13p12-------------17p14p12-------------12h15--|
|-15p13p12-------------19p15p13p12----------17p14p12-----------|
|----------------------------------------------------14--------|
|--------------------------------------------------------------|
|--------------------------------------------------------------|
|--------------------------------------------------------------|
|
|           T           T           T        T
|  |------6-------|        |--3--|  |------6-------|
|  S  S  S  S  S  S  S  S  S  S  S  S  S  S  S  S  S  E  S  S
|----------14p10p=8p=7-------------12p=9p=7--------------7h10--|
|-10p=8p=7-------------14p10p=8p=7----------12p=9p=7-----------|
|-----------------------------------------------------9--------|
|--------------------------------------------------------------|
|--------------------------------------------------------------|
|--------------------------------------------------------------|
|
|  E        E        E     E        E        E        E  E
|--------------------------------------------------------------|
|--------------------------------------------------------------|
|--------------------------------------------------------------|
|--------------------------------------------------------------|
|--------------------------------------------------------------|
|--3p=======0--------x-----x--------1p=======0--------x--0-----|


   T           T            T           T           T           T
   |------6-------|         |--3--|  |--3--|        |--3--|
   S  S  S  S  S  S  S   S  S  S  S  S  S  S  S  S  S  S  S  S  S
|-17p15p13p12--------------19p15p13p12-------------20p15p13p12----|
|-------------17p15p13p=12-------------19p15p13p12-------------20p|
|-----------------------------------------------------------------|
|-----------------------------------------------------------------|
|-----------------------------------------------------------------|
|-----------------------------------------------------------------|
|
|  T           T            T           T           T           T
|  |------6-------|         |--3--|  |--3--|        |--3--|
|  S  S  S  S  S  S  S   S  S  S  S  S  S  S  S  S  S  S  S  S  S
|-12p10p=8p=7--------------14p10p=8p=7-------------15p10p=8p=7----|
|-------------12p10p=8p==7-------------14p10p=8p=7-------------15p|
|-----------------------------------------------------------------|
|-----------------------------------------------------------------|
|-----------------------------------------------------------------|
|-----------------------------------------------------------------|
|
|  E        E        Q               E        E     E        E
|-----------------------------------------------------------------|
|-----------------------------------------------------------------|
|-----------------------------------------------------------------|
|-----------------------------------------------------------------|
|--5--------7--------7\-------------------------------------------|
|---------------------------------------------0--------------0----|


            T           T           T        T
   |------6-------|        |--3--|  |------6-------|
   S  S  S  S  S  S  S  S  S  S  S  S  S  S  S  S  S  E  S  S
|----------19p15p13p12-------------17p14p12-------------12h15--|
|-15p13p12-------------19p15p13p12----------17p14p12-----------|
|----------------------------------------------------14--------|
|--------------------------------------------------------------|
|--------------------------------------------------------------|
|--------------------------------------------------------------|
|
|           T           T           T        T
|  |------6-------|        |--3--|  |------6-------|
|  S  S  S  S  S  S  S  S  S  S  S  S  S  S  S  S  S  E  S  S
|----------14p10p=8p=7-------------12p=9p=7--------------7h10--|
|-10p=8p=7-------------14p10p=8p=7----------12p=9p=7-----------|
|-----------------------------------------------------9--------|
|--------------------------------------------------------------|
|--------------------------------------------------------------|
|--------------------------------------------------------------|
|
|  E        E        E     E        E        E        E  E
|--------------------------------------------------------------|
|--------------------------------------------------------------|
|--------------------------------------------------------------|
|--------------------------------------------------------------|
|--------------------------------------------------------------|
|--3p=======0--------x-----x--------1p=======0--------x--0-----|


   T           T            T           T           T           T
   |------6-------|         |--3--|  |--3--|        |--3--|
   S  S  S  S  S  S  S   S  S  S  S  S  S  S  S  S  S  S  S  S  S
|-17p15p13p12--------------19p15p13p12-------------17p15p13p12----|
|-------------17p15p13p=12-------------19p15p13p12-------------17p|
|-----------------------------------------------------------------|
|-----------------------------------------------------------------|
|-----------------------------------------------------------------|
|-----------------------------------------------------------------|
|
|  T           T            T           T           T           T
|  |------6-------|         |--3--|  |--3--|        |--3--|
|  S  S  S  S  S  S  S   S  S  S  S  S  S  S  S  S  S  S  S  S  S
|-12p10p=8p=7--------------14p10p=8p=7-------------12p10p=8p=7----|
|-------------12p10p=8p==7-------------14p10p=8p=7-------------12p|
|-----------------------------------------------------------------|
|-----------------------------------------------------------------|
|-----------------------------------------------------------------|
|-----------------------------------------------------------------|
|
|  E        E        Q               E        E     E        E
|-----------------------------------------------------------------|
|-----------------------------------------------------------------|
|-----------------------------------------------------------------|
|-----------------------------------------------------------------|
|--5--------7--------7\-------------------------------------------|
|---------------------------------------------0--------------0----|


            T           T           T        T
   |------6-------|        |--3--|  |------6-------|
   S  S  S  S  S  S  S  S  S  S  S  S  S  S  S  S  S  E  S  S
|----------19p15p13p12-------------17p14p12-------------12h15--|
|-15p13p12-------------19p15p13p12----------17p14p12-----------|
|----------------------------------------------------14--------|
|--------------------------------------------------------------|
|--------------------------------------------------------------|
|--------------------------------------------------------------|
|
|           T           T           T        T
|  |------6-------|        |--3--|  |------6-------|
|  S  S  S  S  S  S  S  S  S  S  S  S  S  S  S  S  S  E  S  S
|----------14p10p=8p=7-------------12p=9p=7--------------7h10--|
|-10p=8p=7-------------14p10p=8p=7----------12p=9p=7-----------|
|-----------------------------------------------------9--------|
|--------------------------------------------------------------|
|--------------------------------------------------------------|
|--------------------------------------------------------------|
|
|  E        E        E     E        E        E        E  E
|--------------------------------------------------------------|
|--------------------------------------------------------------|
|--------------------------------------------------------------|
|--------------------------------------------------------------|
|--------------------------------------------------------------|
|--3p=======0--------x-----x--------1p=======0--------x--0-----|


   T           T            T           T           T           T
   |------6-------|         |--3--|  |--3--|        |--3--|
   S  S  S  S  S  S  S   S  S  S  S  S  S  S  S  S  S  S  S  S  S
|-17p15p13p12--------------19p15p13p12-------------20p15p13p12----|
|-------------17p15p13p=12-------------19p15p13p12-------------20p|
|-----------------------------------------------------------------|
|-----------------------------------------------------------------|
|-----------------------------------------------------------------|
|-----------------------------------------------------------------|
|
|  T           T            T           T           T           T
|  |------6-------|         |--3--|  |--3--|        |--3--|
|  S  S  S  S  S  S  S   S  S  S  S  S  S  S  S  S  S  S  S  S  S
|-12p10p=8p=7--------------14p10p=8p=7-------------15p10p=8p=7----|
|-------------12p10p=8p==7-------------14p10p=8p=7-------------15p|
|-----------------------------------------------------------------|
|-----------------------------------------------------------------|
|-----------------------------------------------------------------|
|-----------------------------------------------------------------|
|
|  E        E        Q               E        E     E        E
|-----------------------------------------------------------------|
|-----------------------------------------------------------------|
|-----------------------------------------------------------------|
|-----------------------------------------------------------------|
|--5--------7--------7\-------------------------------------------|
|---------------------------------------------0--------------0----|


            T           T           T           T
   |------6-------|        |--3--|  |------6-------|
   S  S  S  S  S  S  S  S  S  S  S  S  S  S  S  S  S  S  E.
|----------21p15p13p12-------------22p15p13p12-----------------|
|-15p13p12-------------21p15p13p12-------------22p15p13p12\----|
|--------------------------------------------------------------|
|--------------------------------------------------------------|
|--------------------------------------------------------------|
|--------------------------------------------------------------|
|
|           T           T           T           T
|  |------6-------|        |--3--|  |------6-------|
|  S  S  S  S  S  S  S  S  S  S  S  S  S  S  S  S  S  S  E.
|----------16p10p=8p=7-------------17p10p=8p=7-----------------|
|-10p=8p=7-------------16p10p=8p=7-------------17p10p=8p=7\----|
|--------------------------------------------------------------|
|--------------------------------------------------------------|
|--------------------------------------------------------------|
|--------------------------------------------------------------|
|
|  E        E        E     E        E        E        E     E
|--------------------------------------------------------------|
|--------------------------------------------------------------|
|--------------------------------------------------------------|
|--------------------------------------------------------------|
|--------------------------------------------------------------|
|--3p=======0--------x-----x--------1p=======0--------x-----0--|


   |--3--|             |-3--|      |-3--|
   S  S  S S  S S   S  S S  S S  S S  S S  S  S S  S
|-10h12p10p8h10p8-------------8h10p8h10p8------------|
|------------------12-10p8h10-------------12p10p8h10-|
|----------------------------------------------------|
|----------------------------------------------------|
|----------------------------------------------------|
|----------------------------------------------------|
|
| Gtr V
|  E       E    Q             E    E       E    E
|----------------------------------------------------|
|----------------------------------------------------|
|----------------------------------------------------|
|----------------------------------------------------|
|--5-------7----7\-----------------------------------|
|----------------------------------0------------0----|


       |-3--|            |-----6-----|
  S  S S  S S  S  S S  S S  S S  S S S S S S S
|-8h10p8h10p8------------8h10p8h10p8s7-8p7h8p7---|
|-------------12p10p8h10-------------------------|
|------------------------------------------------|
|------------------------------------------------|
|------------------------------------------------|
|------------------------------------------------|
|
| E    E       E    E    E       E     E   E
|------------------------------------------------|
|------------------------------------------------|
|------------------------------------------------|
|------------------------------------------------|
|------------------------------------------------|
|-3p===0-------x----x----1p======0-----x---0-----|


   |-3-|                  |-3-|
   S S S S S S  S T T T T S S S S S S S S S
|-------------------------------------------|
|-10p8p6h8p6h8p=6---------------------------|
|-----------------9p7p5s4h5h7p5-4h5p4-------|
|-------------------------------------7p5p3S|
|-------------------------------------------|
|-------------------------------------------|
|
|  E     E   Q            E     E   E   E
|-------------------------------------------|
|-------------------------------------------|
|-------------------------------------------|
|-------------------------------------------|
|--5-----7---7\-----------------------------|
|-------------------------------0-------0---|


  ~~
  Q.    E Q.    E    E  E  E   E  S  S  E  E  E
|------------------|------------------------------|
|------------------|----------12-10s13s12-13-14---|
|------------------|------11----------------------|
|-2-----3-2-----3/-|---12-------------------------|
|------------------|------------------------------|
|------------------|------------------------------|
|
| E E E E E E E E    E  E  Q      E     E  E  E
|------------------|------------------------------|
|------------------|------------------------------|
|------------------|------------------------------|
|------------------|------------------------------|
|------------------|-5--7--7\---------------------|
|-3p0-x-x-1p0-x-0--|--------------------0-----0---|


               ~~~
   E  E  E  E  Q.     S  S    E  E  E   E  E  E  E  E
|-12h13-12-----------12-13-|-15-13-12------------------|
|----------15-13-----------|-----------15-13-12--------|
|--------------------------|--------------------14-12\-|
|--------------------------|---------------------------|
|--------------------------|---------------------------|
|--------------------------|---------------------------|
|
|  E  E  E  E  E E E  E       E  E  Q      E  E  E  E
|--------------------------|---------------------------|
|--------------------------|---------------------------|
|--------------------------|---------------------------|
|--------------------------|---------------------------|
|--------------------------|--5--7--7\-----------------|
|--3p=0--x--x--1p0-x--0----|------------------0-----0--|


   PM------------------------------------|
   S  S  S S  S  S S  S S S  S S  S  S S  S
|--------------------------------------------||
|--------------------------------------------||
|-12-12-10-9-10-10-9----9-9------------------||
|--------------------12-----12-9-12-12-9-----||
|----------------------------------------12--||
|--------------------------------------------||
|
|  E     E    E    E    E    E    E    E
|--------------------------------------------||
|--------------------------------------------||
|--------------------------------------------||
|--------------------------------------------||
|--------------------------------------------||
|--3p====0----x----x----1p===0----x----0-----||


 H
  Gtr V
   Q        H.
   |
   o

  Gtr IV
   E     E  E     E  Q        a  +E   E
|---------------------------------------|
|-15b17-15-15b17-15S20b23====15r(15)-15-|
|---------------------------------------|
|---------------------------------------|
|---------------------------------------|
|---------------------------------------|
|
| Gtr II
|                    PM----|
|  Q        E     E  E     E      Q
|---------------------------------------|
|---------------------------------------|
|--9\-----------------------------9\----|
|--9\-------------2---------------9\----|
|--7\-------------2--2-----2------7\----|
|--7\-------------0--0-----0------7\----|
|
| Gtr III
|  E     E  H.
|---------------------------------------|
|---------------------------------------|
|---------------------------------------|
|---------------------------------------|
|-12s===10------------------------------|
|---------------------------------------|


   W                                   W
                                ~~
   E     E  Q        a  +E   E  Q      E     E  E     E  Q       E   E
|-----------------------------------|-----------------------------------|
|-15b17-15S20b23====15r(15)-15------|-15b17-15-15b17-15S20b23---15--15--|
|------------------------------12---|-----------------------------------|
|-----------------------------------|-----------------------------------|
|-----------------------------------|-----------------------------------|
|-----------------------------------|-----------------------------------|
|
|           PM--------------------|                      PM---|
|  E     E  E     E      E   E  E E    Q        E     E  E    E  Q
|-----------------------------------|-----------------------------------|
|-----------------------------------|-----------------------------------|
|-----------------------------------|--9\------------------------9\-----|
|--------2--------------------------|--9\-------------2----------9\-----|
|--------2--2-----2------3---3--3-3S|==7\-------------2--2----2--7\-----|
|--------0--0-----0------1---1--1-1S|==7\-------------0--0----0--7\-----|
|
|  W                                   W
|-----------------------------------|-----------------------------------|
|-----------------------------------|-----------------------------------|
|-----------------------------------|-----------------------------------|
|-----------------------------------|-----------------------------------|
|-----------------------------------|-----------------------------------|
|-----------------------------------|-----------------------------------|


             ~~~~~
   Q.        H           +E
|-17b19-----17b19-------(17)S=|
|-----------------------------|
|-----------------------------|
|-----------------------------|
|-----------------------------|
|-----------------------------|
|
| Gtr III
|            ~~~~~
|  Q.        H           +E
|-----------------------------|
|-17b19-----17b19-------(17)\-|
|-----------------------------|
|-----------------------------|
|-----------------------------|
|-----------------------------|
|
| Gtr II
|         PM|
|  E    E E  E    Q.     +E
|-----------------------------|
|-----------------------------|
|-----------------------------|
|-------2---------------------|
|-------2-2--2----4b5----(4)--|
|-------0-0--0----2b3----(2)--|


          |--3--|                    |--3--|
   S   S  S  S  S  S  S  S  S  S  S  S  S  S  S   S  S S
|-15--17-18p17p15-17-18-18S12-14-15-15p14p12-14--15-15S7-|
|--------------------------------------------------------|
|--------------------------------------------------------|
|--------------------------------------------------------|
|--------------------------------------------------------|
|--------------------------------------------------------|
|
|  W
|--------------------------------------------------------|
|--------------------------------------------------------|
|--------------------------------------------------------|
|--------------------------------------------------------|
|--------------------------------------------------------|
|--------------------------------------------------------|
|
|                              PM---|
|  Q               E     E     E     E        Q
|--------------------------------------------------------|
|--------------------------------------------------------|
|--9\-----------------------------------------9\---------|
|--9\--------------------2--------------------9\---------|
|--7\--------------------2-----2-----2--------7\---------|
|--7\--------------------0-----0-----0--------7\---------|


                                            PM-----|   PM    PM-----|
        |-3-|               |-3-|
  S  S  S S S S  S  S S S S S S S S S S S   S  S S S E E E E S  S S S
|-9-10-10p9p7-9-10-10S5-7-8-8p7p5-7-8-7-5-|---------------------------|
|-----------------------------------------|-7--8-8-8-7-6-7p6-6--7-7-7-|
|-----------------------------------------|---------------------------|
|-----------------------------------------|---------------------------|
|-----------------------------------------|---------------------------|
|-----------------------------------------|---------------------------|
|
|             PM----------------------|                  PM|
| E     E     E     E   E   E     E   E     Q        E E E E Q
|-----------------------------------------|---------------------------|
|-----------------------------------------|---------------------------|
|-----------------------------------------|-9\---------------9\-------|
|-------2---------------------------------|-9\---------2-----9\-------|
|-------2-----2-----2---3---3-----3---3S==|=7\---------2-2-2-7\-------|
|-------0-----0-----0---1---1-----1---1S==|=7\---------0-0-0-7\-------|


  PM|     PM------| ~
  E E E E S   S S S Q       S  S S S S S S S E S  S  S   S  S  S
|-------------------------|-----------------------------10h12p10-|
|-6-5-6p5-6---6-6-6-5-----|--------------------8h10s12-----------|
|-------------------------|----------------7s9-------------------|
|-------------------------|----------5s7h9-----------------------|
|-------------------------|------5h7-----------------------------|
|-------------------------|-5h=7---------------------------------|
|
|     PM|                                    PM|
| E E E E Q.          +E    Q        E   E   E E     Q
|-------------------------|--------------------------------------|
|-------------------------|--------------------------------------|
|-------------------------|-9\-----------------------9\----------|
|---2---------------------|-9\-----------2-----------9\----------|
|---2-2-2-4b5---------(4)-|-7\-----------2---2-2-----7\----------|
|---0-0-0-2b3---------(2)-|-7\-----------0---0-0-----7\----------|


   S  S  S  S  S  S  S  S  S  S  S  S  E  E
|-------------12h14h15p14p12----------------|
|-12p10h12h15----------------15p13p12-------|
|-------------------------------------14-12-|
|-------------------------------------------|
|-------------------------------------------|
|-------------------------------------------|
|
|              PM------------------------|
|  E     E     E     E     E     E     E  E
|-------------------------------------------|
|-------------------------------------------|
|-------------------------------------------|
|--------2----------------------------------|
|--------2-----2-----2-----3-----3-----3--3S|
|--------0-----0-----0-----1-----1-----1--1S|


                                                    ~~~~~
   Q.       a +E  +Q     Q        +E   Q       +E   Q      +Q
|------------------------------|------------------------------------|
|------------------------------|------------------------------------|
|-14b16=====2r(2)-(2)S==14b16--|-(14)-14b16---(14)-14b16--(14)\-----|
|------------------------------|------------------------------------|
|------------------------------|------------------------------------|
|------------------------------|------------------------------------|
|
|                  PM-|                     PM|
|  Q      E    E   E  E  Q         E   E    E   E   Q.          +E
|------------------------------|------------------------------------|
|------------------------------|------------------------------------|
|--9\--------------------9\----|------------------------------------|
|--9\----------2---------9\----|-------2----------------------------|
|--7\----------2---2--2--7\----|-------2----2---2---4b5---------(4)-|
|--7\----------0---0--0--7\----|-------0----0---0---2b3---------(2)-|


   |--3--|            |-3--|            |--3--|
   S   S S  S S  S  S S  S S  S S  S S  S   S S  S S
|----------------------------------------------------|
|----------------------------------------------------|
|----------------------------------------------------|
|-12p=10p9h10p9------------9h10p9h10p9-------------9h|
|---------------12p10p9h12-------------12p=10p9h10---|
|----------------------------------------------------|
|
|                             PM--|
|  Q             E    E       E    E    Q
|----------------------------------------------------|
|----------------------------------------------------|
|--9\-----------------------------------9\-----------|
|--9\-----------------2-----------------9\-----------|
|--7\-----------------2-------2----2----7\-----------|
|--7\-----------------0-------0----0----7\-----------|


             |-3--|       |-----6------|
   S S  S S  S  S S  S S  S S  S  S S  S  S  S  S  S
|----------------------------------------------------|
|----------------------------------------------------|
|----------------------------------------------------|
|-10p9h10p9------------9h10p9h12p10p9s11-14h15p14s15-|
|-----------12p10p8h10-------------------------------|
|----------------------------------------------------|
|
|            PM--------------------------------|
|  E    E    E       E    E       E       E     E
|----------------------------------------------------|
|----------------------------------------------------|
|----------------------------------------------------|
|-------2--------------------------------------------|
|-------2----2-------2----3-------3-------3-----3S===|
|-------0----0-------0----1-------1-------1-----1S===|


                                 |-3--|  |--3---|
   S   S  S  S  S  S  S  S  S S  S  S S  S   S  S S  S
|------------------------------------------------------|
|-12h=13p12h13p12--------------------------------------|
|-----------------14s10-12-10-9------------------------|
|-------------------------------12p10p9h10h=12p10p9h10p|
|------------------------------------------------------|
|------------------------------------------------------|
|
|                           PM--|
|  Q            E     E     E    E       Q
|------------------------------------------------------|
|------------------------------------------------------|
|--9\------------------------------------9\------------|
|--9\-----------------2------------------9\------------|
|--7\-----------------2-----2----2-------7\------------|
|--7\-----------------0-----0----0-------7\------------|


       |-3--|  |-3--|                   |-3--|
  S  S S  S S  S  S S  S S  S    S S  S S  S S  E
|----------------------------------------------------|
|----------------------------------------------------|
|----------------------------------------------------|
|-9h10p9h10p9----------------------------------------|
|-------------12p10p8h10p8---------------------------|
|--------------------------12p==10p8h10p8h10p8S=7----|
|
|              PM-----|
| E    E       E       E    Q.                 +E
|----------------------------------------------------|
|----------------------------------------------------|
|----------------------------------------------------|
|------2---------------------------------------------|
|------2-------2-------2----4b5----------------(4)---|
|------0-------0-------0----2b3----------------(2)---|


        ~
  Q   E Q   E E  E   E E E E E E S S E   E   E E  E  E E  E   E
|------------------|-------------------|---------------0-15s=17s=|
|------------------|-------------------|-------0-12s15-----------|
|------------------|-------7s9-7-9p7-0-|-9s=16-------------------|
|------------------|-----5-------------|-------------------------|
|-0----------------|-3s7---------------|-------------------------|
|-----3-1---3-1--0-|-------------------|-------------------------|
|
|         PM|            PM----------|               PM|
| Q   E E E E Q      E E E E E E E   E   Q     E  E  E E  Q
|------------------|-------------------|-------------------------|
|------------------|-------------------|-------------------------|
|-9\----------9\---|-------------------|-9\---------------9\-----|
|-9\----2-----9\---|---2---------------|-9\-------2-------9\-----|
|-7\----2-2-2-7\---|---2-2-2-3-3-3---3S|=7\-------2--2-2--7\-----|
|-7\----0-0-0-7\---|---0-0-0-1-1-1---1S|=7\-------0--0-0--7\-----|


               ~~~~~
   E  E  E  E  Q      E  E     E   E E  E  E E  E  E   E E E  E E E E E
|-15s12----12--------12-----|-15s=12-0-12s10---------|-------------------|
|-------15----15b17------0--|----------------0-10s=8-|-------10s8-----9/-|
|---------------------------|------------------------|-0-7s9------7s9----|
|---------------------------|------------------------|-------------------|
|---------------------------|------------------------|-------------------|
|---------------------------|------------------------|-------------------|
|
|        PM|                               PM|             PM---------|
|  E  E  E  E  Q.       +E     Q     E  E  E E  Q      E E E  E E E E E
|---------------------------|------------------------|-------------------|
|---------------------------|------------------------|-------------------|
|---------------------------|--9\---------------9\---|-------------------|
|-----2---------------------|--9\-------2-------9\---|---2---------------|
|-----2--2--2--4b5------(4)-|--7\-------2--2-2--7\---|---2-2--2-3-3-3-3S=|
|-----0--0--0--2b3------(2)-|--7\-------0--0-0--7\---|---0-0--0-1-1-1-1S=|


   |-----5------|                        |----5-----|
   S   S  S  S  S  S  S  S  S  S  S S  S S   S S  S S
|-12h=13p12h13p12--------------------------------------|
|------------------------------------------------------|
|-----------------13p12h13p12\-------------------------|
|------------------------------9h10p9h10---------------|
|----------------------------------------9h=10p9h10p9\-|
|------------------------------------------------------|
|
|                              PM---|
|  Q               E     E     E    E    Q
|------------------------------------------------------|
|------------------------------------------------------|
|--9\------------------------------------9\------------|
|--9\--------------------2---------------9\------------|
|--7\--------------------2-----2----2----7\------------|
|--7\--------------------0-----0----0----7\------------|


  E S S S S S S  S   S S S S S  S  S
|-------------------------------------||
|-------------------------------------||
|-------------------------------------||
|---3p2-------------------------------||
|-------3p2h3p2S[5]h=7p5h7S3h5p=3h=5--||
|-0-----------------------------------||
|
|       PM--|
| E E   E   E    Q.            +E
|-------------------------------------||
|-------------------------------------||
|-------------------------------------||
|---2---------------------------------||
|---2---2---2----4b5-----------(4)----||
|---0---0---0----2b3-----------(2)----||


 I
  Gtr III
   S S  S S  S S S S  S S S S  S S  S  S
|----------------------------------------|
|-12p8----8-12p8---8-12p8---8-12p8----12-|
|-------9--------9--------9--------12----|
|----------------------------------------|
|----------------------------------------|
|----------------------------------------|
|
| Gtr IV
|  PM-------------------------------------
|  E    E    E   E    E   E    E    E
|----------------------------------------|
|----------------------------------------|
|----------------------------------------|
|------------9---7-----------------------|
|--7---10------------10---9----7---------|
|----------------------------------10----|
|
| Gtr II
|  W
|----------------------------------------|
|----------------------------------------|
|----------------------------------------|
|--2-------------------------------------|
|--2-------------------------------------|
|--0-------------------------------------|


   S  S  S  S  S  S  S  S  S  S  S  S  S  S  S  S
|-------------------------------------------------|
|-15p12----12-15p12----12-15p12----12-15p12----10-|
|-------12----------12----------12----------11----|
|-------------------------------------------------|
|-------------------------------------------------|
|-------------------------------------------------|
|
|-------------------------------------------|
|  E     E     E     E     E     E     E     E
|-------------------------------------------------|
|-------------------------------------------------|
|--------------7----------------------------------|
|--------9----------10-----9-----7----------------|
|-10----------------------------------10S====9----|
|-------------------------------------------------|
|
|  W
|-------------------------------------------------|
|-------------------------------------------------|
|-------------------------------------------------|
|--5----------------------------------------------|
|--5----------------------------------------------|
|--3----------------------------------------------|


   S  S  S  S  S  S  S  S  S  S  S  S  S  S  S  S
|-------------------------------------------------|
|-14p10----10-14p10----10-14p10----10-14p10----13-|
|-------11----------11----------11----------14----|
|-------------------------------------------------|
|-------------------------------------------------|
|-------------------------------------------------|
|
|  PM----------------------------------------------
|  E     E     E     E     E     E     E     E
|-------------------------------------------------|
|-------------------------------------------------|
|--------------6----------------------------------|
|--------7-----------9-----7-----6----------------|
|--9-----------------------------------9-----7S===|
|-------------------------------------------------|
|
|  W
|-------------------------------------------------|
|-------------------------------------------------|
|-------------------------------------------------|
|--4----------------------------------------------|
|--4----------------------------------------------|
|--2----------------------------------------------|


   S  S  S  S  S  S  S  S  S  S  S  S  E  S S
|----------------------------------------------|
|-17p13----13-17p13----13-17p13----13-17\---8--|
|-------14----------14----------14--------9----|
|----------------------------------------------|
|----------------------------------------------|
|----------------------------------------------|
|
|-----------------------------------------|
|  E     E     E     E     E     E     E  E
|----------------------------------------------|
|----------------------------------------------|
|----------------------------------------------|
|--------7----10-----8-----7-------------------|
|--8----------------------------10-----8--7----|
|----------------------------------------------|
|
|  W
|----------------------------------------------|
|----------------------------------------------|
|----------------------------------------------|
|--3-------------------------------------------|
|--3-------------------------------------------|
|--1-------------------------------------------|


   S S  S S  S S S S  S S S S  S S  S  S
|----------------------------------------|
|-12p8----8-12p8---8-12p8---8-12p8----12-|
|-------9--------9--------9--------12----|
|----------------------------------------|
|----------------------------------------|
|----------------------------------------|
|
|  PM-------------------------------------
|  E    E    E   E    E   E    E    E
|----------------------------------------|
|----------------------------------------|
|----------------------------------------|
|------------9---7-----------------------|
|--7---10------------10---9----7---------|
|----------------------------------10----|
|
|  W
|----------------------------------------|
|----------------------------------------|
|----------------------------------------|
|--2-------------------------------------|
|--2-------------------------------------|
|--0-------------------------------------|


   S  S  S  S  S  S  S  S  S  S  S  S  S  S  S  S
|-------------------------------------------------|
|-15p12----12-15p12----12-15p12----12-15p12----10-|
|-------12----------12----------12----------11----|
|-------------------------------------------------|
|-------------------------------------------------|
|-------------------------------------------------|
|
|-------------------------------------------|
|  E     E     E     E     E     E     E     E
|-------------------------------------------------|
|-------------------------------------------------|
|--------------7----------------------------------|
|--------9----------10-----9-----7----------------|
|-10----------------------------------10S====9----|
|-------------------------------------------------|
|
|  W
|-------------------------------------------------|
|-------------------------------------------------|
|-------------------------------------------------|
|--5----------------------------------------------|
|--5----------------------------------------------|
|--3----------------------------------------------|


   S  S  S  S  S  S  S  S  S  S  S  S  S  S  S  S
|-------------------------------------------------|
|-14p10----10-14p10----10-14p10----10-14p10----13-|
|-------11----------11----------11----------14----|
|-------------------------------------------------|
|-------------------------------------------------|
|-------------------------------------------------|
|
|  PM----------------------------------------------
|  E     E     E     E     E     E     E     E
|-------------------------------------------------|
|-------------------------------------------------|
|--------------6----------------------------------|
|--------7-----------9-----7-----6----------------|
|--9-----------------------------------9-----7S===|
|-------------------------------------------------|
|
|  W
|-------------------------------------------------|
|-------------------------------------------------|
|-------------------------------------------------|
|--4----------------------------------------------|
|--4----------------------------------------------|
|--2----------------------------------------------|


   S  S  S  S  S  S  S  S  S  S  S  S  E  S S
|----------------------------------------------|
|-17p13----13-17p13----13-17p13----13-17\---8--|
|-------14----------14----------14--------9----|
|----------------------------------------------|
|----------------------------------------------|
|----------------------------------------------|
|
|-----------------------------------------|
|  E     E     E     E     E     E     E  E
|----------------------------------------------|
|----------------------------------------------|
|----------------------------------------------|
|--------7----10-----8-----7-------------------|
|--8----------------------------10-----8--7----|
|----------------------------------------------|
|
|  W
|----------------------------------------------|
|----------------------------------------------|
|----------------------------------------------|
|--3-------------------------------------------|
|--3-------------------------------------------|
|--1-------------------------------------------|


   S S  S S  S S  S  S   S  S  S  S  S  S  S  S
|-----------------------------------------------|
|-12p8----8-12p8----12--15p12----12-15p12----10-|
|-------9--------12-----------12----------11----|
|-----------------------------------------------|
|-----------------------------------------------|
|-----------------------------------------------|
|
|  PM--------------------------------------------
|  E    E    E    E      E     E     E     E
|-----------------------------------------------|
|-----------------------------------------------|
|-----------------------------------------------|
|------------9-----------------9----12-----9----|
|--7---10--------10----/10----------------------|
|-----------------------------------------------|
|
|  H                     H
|-----------------------------------------------|
|-----------------------------------------------|
|-----------------------------------------------|
|--2---------------------5----------------------|
|--2---------------------5----------------------|
|--0---------------------3----------------------|


   S  S  S  S  S  S  S  S  S  S  S  S  E  S S
|----------------------------------------------|
|-14p10----10-14p10----13-17p13----13-17\---8--|
|-------11----------14----------14--------9----|
|----------------------------------------------|
|----------------------------------------------|
|----------------------------------------------|
|
|-----------------------------------------|
|  E     E     E     E     E     E     E  E
|----------------------------------------------|
|----------------------------------------------|
|----------------------------------------------|
|-------------11-----------------7----10--7----|
|--9----12----------12-----8-------------------|
|----------------------------------------------|
|
|  H                       H
|----------------------------------------------|
|----------------------------------------------|
|----------------------------------------------|
|--4-----------------------3-------------------|
|--4-----------------------3-------------------|
|--2-----------------------1-------------------|


   S S  S S  S S  S  S   S  S  S  S  S  S  S  S
|-----------------------------------------------|
|-12p8----8-12p8----12--15p12----12-15p12----10-|
|-------9--------12-----------12----------11----|
|-----------------------------------------------|
|-----------------------------------------------|
|-----------------------------------------------|
|
|  PM--------------------------------------------
|  E    E    E    E      E     E     E     E
|-----------------------------------------------|
|-----------------------------------------------|
|-----------------------------------------------|
|------------9-----------------9----12-----9----|
|--7---10--------10----/10----------------------|
|-----------------------------------------------|
|
|  H                     H
|-----------------------------------------------|
|-----------------------------------------------|
|-----------------------------------------------|
|--2---------------------5----------------------|
|--2---------------------5----------------------|
|--0---------------------3----------------------|



   S  S  S  S  S  S  S  S  S  S  S  S  E  S S
|----------------------------------------------|
|-14p10----10-14p10----13-17p13----13-17\---8--|
|-------11----------14----------14--------9----|
|----------------------------------------------|
|----------------------------------------------|
|----------------------------------------------|
|
|-----------------------------------------|
|  E     E     E     E     E     E     E  E
|----------------------------------------------|
|----------------------------------------------|
|----------------------------------------------|
|-------------11-----------------7----10--7----|
|--9----12----------12-----8-------------------|
|----------------------------------------------|
|
|  H                       H
|----------------------------------------------|
|----------------------------------------------|
|----------------------------------------------|
|--4-----------------------3-------------------|
|--4-----------------------3-------------------|
|--2-----------------------1-------------------|


   S S  S  S  S  S  S  S  S  S  S  S  E  S S
|--------------------------------------------|
|-12p8----12-15p12----10-14p10----13-17\---8-|
|------12----------11----------14--------9---|
|--------------------------------------------|
|--------------------------------------------|
|--------------------------------------------|
|
|  Q          Q           Q           E  E
|--------------------------------------------|
|--------------------------------------------|
|--------------------------------------------|
|--------------------------------------------|
|--7---------10-----------9-----------8------|
|--------------------------------------------|
|
|  Q          Q           Q           Q
|--------------------------------------------|
|--------------------------------------------|
|--------------------------------------------|
|--2----------5-----------4-----------3------|
|--2----------5-----------4-----------3------|
|--0----------3-----------2-----------1------|


   S S  S  S  S  S  S  S  S  S  S  S  E  S S
|--------------------------------------------|
|-12p8----12-15p12----10-14p10----13-17\---8-|
|------12----------11----------14--------9---|
|--------------------------------------------|
|--------------------------------------------|
|--------------------------------------------|
|
|  Q          Q           Q           E  E
|--------------------------------------------|
|--------------------------------------------|
|--9---------12----------11----------10------|
|--------------------------------------------|
|--------------------------------------------|
|--------------------------------------------|
|
|  Q          Q           Q           Q
|--------------------------------------------|
|--------------------------------------------|
|--------------------------------------------|
|--2----------5-----------4-----------3------|
|--2----------5-----------4-----------3------|
|--0----------3-----------2-----------1------|


   S  S  S  S  S  S  S  S  S  S  S  S  S  S  E
|-------------------------------------------------|
|-12p=8----12-15p12----10-14p10----13-17p13-------|
|-------12----------11----------14----------14S===|
|-------------------------------------------------|
|-------------------------------------------------|
|-------------------------------------------------|
|
|  S  S  S  S  S  S  S  S  S  S  S  S  S  S  S  S
|-12-12-12-12-15-15-15-15-14-14-14-14-13-13-13-13-|
|-------------------------------------------------|
|-------------------------------------------------|
|-------------------------------------------------|
|-------------------------------------------------|
|-------------------------------------------------|
|
|  Q           Q           Q           Q
|-------------------------------------------------|
|-------------------------------------------------|
|-------------------------------------------------|
|--2-----------5-----------4-----------3----------|
|--2-----------5-----------4-----------3----------|
|--0-----------3-----------2-----------1----------|


                 ~~~~~
   Q      Q      Q      +Q
|-----------------------------||
|-----------------------------||
|-19b21--19b21--19b21--(19)\--||
|-----------------------------||
|-----------------------------||
|-----------------------------||
|
|                ~~~~~
|  Q      Q      Q      +Q
|-17b19--17b19--17b19--(17)\--||
|-----------------------------||
|-----------------------------||
|-----------------------------||
|-----------------------------||
|-----------------------------||
|
|  Q      Q      Q       Q
|-----------------------------||
|-----------------------------||
|-----------------------------||
|--2------2------2-------2----||
|--2------2------2-------2----||
|--0------0------0-------0----||


 J
  a E E E  E  E  E E E    E   E  Q   S S S S  S  S S S   E E E  E  E  E E E
|----------------------|-------------------------------|--------------------|
|----------------------|-------------------------------|--------------------|
|-7s9-7-9s12-12-12S9-7-|--9S=12-12S==4-4-4-4S=7--7-7-7-|-9-7-9s12-12-12S9-7-|
|----------------------|-------------------------------|--------------------|
|----------------------|-------------------------------|--------------------|
|----------------------|-------------------------------|--------------------|
|
|   W                    +H.                 +Q          W
|----------------------|-------------------------------|--------------------|
|----------------------|-------------------------------|--------------------|
|---4------------------|-(4)-----------------(4)S======|=7------------------|
|----------------------|-------------------------------|--------------------|
|---2------------------|-(2)-----------------(2)S======|=5------------------|
|----------------------|-------------------------------|--------------------|
|
|       PM---------------|       PM|     PM        PM        PM-----------|
|   Q   E  E  E  E E E    E   E  E E E   E    E    E     Q   E  E  E  E E E
|----------------------|-------------------------------|--------------------|
|----------------------|-------------------------------|--------------------|
|----------------------|-------------------------------|-7------------------|
|---2------------------|------2------2--------2--------|-7------------------|
|---2---2--2--2--2-2-2-|--2---2--2-2-2---2----2--------|-5---5--5--5--5-5-5-|
|---0---0--0--0--0-0-0-|--0---0--0-0-0---0----0----0---|-5---5--5--5--5-5-5-|


   E   E  E E   E  +E      +E   +E
|------------------------------------|
|------------------------------------|
|--9S=12-12-9-/15-(15)b17-(15)-(15)\-|
|------------------------------------|
|------------------------------------|
|------------------------------------|
|
| +H.                      +Q
|------------------------------------|
|------------------------------------|
|-(7)----------------------(7)S======|
|------------------------------------|
|-(5)----------------------(5)S======|
|------------------------------------|
|
|  PM     PM|       PM           PM
|  E   E  E E   E   E       E    E
|------------------------------------|
|------------------------------------|
|------7--------7-----------7--------|
|------7--------7-----------7--------|
|--5---5--5-5---5---5-------5----5---|
|--5---5--5-5---5---5-------5----5---|


   E E E  E  E  E E E   E  E  Q   S S S S  S  S S S
|---------------------|-----------------------------|
|---------------------|-----------------------------|
|-/9-7-9S12-12-12S9-7-|-9S12-12S==4-4-4-4S=7--7-7-7-|
|---------------------|-----------------------------|
|---------------------|-----------------------------|
|---------------------|-----------------------------|
|
|  W                    H.                +Q
|---------------------|-----------------------------|
|---------------------|-----------------------------|
|--9------------------|-9-----------------(9)S======|
|---------------------|-----------------------------|
|--7------------------|-7-----------------(7)S======|
|---------------------|-----------------------------|
|
|      PM---------------|     PM|     PM
|  Q   E  E  E  E E E   E  E  E E E   E    E    E
|---------------------|-----------------------------|
|---------------------|-----------------------------|
|---------------------|-----------------------------|
|--7------------------|----7------7--------7\-------|
|--5---7--7--7--7-7-7-|-7--7--7-7-7---7----7\---x---|
|--5---5--5--5--5-5-5-|-5--5--5-5-5---5----5\---x---|


  |-3-|               |-3--|        |--3--|
  S S S S S E   S  S  S  S S  S  S  S  S  S E
|---------------------------------------------|
|-7-8p7p5h7-8\-/8-10h11p10p8S10-12h13p12p10s8-|
|---------------------------------------------|
|---------------------------------------------|
|---------------------------------------------|
|---------------------------------------------|
|
| W
|---------------------------------------------|
|---------------------------------------------|
|-4-------------------------------------------|
|---------------------------------------------|
|-2-------------------------------------------|
|---------------------------------------------|
|
|           PM---------------------------------
| Q         E   E     E       E     E       E
|---------------------------------------------|
|---------------------------------------------|
|---------------------------------------------|
|-2-------------------------------------------|
|-2---------2---2-----2-------2-----2-------2-|
|-0---------0---0-----0-------0-----0-------0-|


   |------6------|             |--3--|        |--3--|
   S   S  S S S  S  E    S  S  S  S  S  S  S  S  S  S  S  S
|-------------------------------------------------------------|
|-10h=11p10p8-8-10-11\-/10-12-13p12p10S13-15-16p15p13-13s15---|
|-------------------------------------------------------------|
|-------------------------------------------------------------|
|-------------------------------------------------------------|
|-------------------------------------------------------------|
|
| +E        E       Q          E        E     Q
|-------------------------------------------------------------|
|-------------------------------------------------------------|
|-(4)-------5------------------5--------------5---------------|
|-------------------------------------------------------------|
|-(2)-------3------------------3--------------3---------------|
|-------------------------------------------------------------|
|
|-|                 PM-|                PM
|  E        E       E    E     E        E     Q
|-------------------------------------------------------------|
|-------------------------------------------------------------|
|-------------------------------------------------------------|
|-------------------------------------------------------------|
|--2--------3------------------3--------------3---------------|
|--0--------1-------0----0-----1--------0-----1---------------|


  a E E E  E  E  E E E   E  E  Q   S S S S S S S S   E E E  E  E  E E E
|----------------------|---------------------------|--------------------|
|----------------------|---------------------------|--------------------|
|-7s9-7-9s12-12-12S9-7-|-9S12-12S==4-4-4-4S7-7-7-7-|-9-7-9S12-12-12S9-7-|
|----------------------|---------------------------|--------------------|
|----------------------|---------------------------|--------------------|
|----------------------|---------------------------|--------------------|
|
|   E E E  E  E  E E E   E  E  E E E   E   E   E     E E E  E  E  E E E
|----------------------|---------------------------|--------------------|
|----------------------|---------------------------|--------------------|
|---4-4-4--4--4--4-4-4-|-4--4--4-4-4---4---4---4S==|=7-7-7--7--7--7-7-7-|
|----------------------|---------------------------|--------------------|
|---2-2-2--2--2--2-2-2-|-2--2--2-2-2---2---2---2S==|=5-5-5--5--5--5-5-5-|
|----------------------|---------------------------|--------------------|
|
|   E E E  E  E  E E E   E  E  E E E   E   E   E     E E E  E  E  E E E
|----------------------|---------------------------|--------------------|
|----------------------|---------------------------|--------------------|
|----------------------|---------------------------|-7-7-7--7--7--7-7-7-|
|---2-2-2--2--2--2-2-2-|-2--2--2-2-2---2---2---2---|-7-7-7--7--7--7-7-7-|
|---2-2-2--2--2--2-2-2-|-2--2--2-2-2---2---2---2---|-5-5-5--5--5--5-5-5-|
|---0-0-0--0--0--0-0-0-|-0--0--0-0-0---0---0---0---|-5-5-5--5--5--5-5-5-|


  E  E  E E   E  +E      +E   +E      E E E  E  E  E E E
|----------------------------------|---------------------|
|----------------------------------|---------------------|
|-9S12-12-9-/15-(15)b17-(15)-(15)\-|-/9-7-9S12-12-12S9-7-|
|----------------------------------|---------------------|
|----------------------------------|---------------------|
|----------------------------------|---------------------|
|
| E  E  E E   E   E       E    E      E E E  E  E  E E E
|----------------------------------|---------------------|
|----------------------------------|---------------------|
|-7--7--7-7---7---7-------7----7S==|==9-9-9--9--9--9-9-9-|
|----------------------------------|---------------------|
|-5--5--5-5---5---5-------5----5S==|==7-7-7--7--7--7-7-7-|
|----------------------------------|---------------------|
|
| E  E  E E   E   E       E    E      E E E  E  E  E E E
|----------------------------------|---------------------|
|----------------------------------|---------------------|
|-7--7--7-7---7---7-------7----7---|---------------------|
|-7--7--7-7---7---7-------7----7---|--7-7-7--7--7--7-7-7-|
|-5--5--5-5---5---5-------5----5---|--7-7-7--7--7--7-7-7-|
|-5--5--5-5---5---5-------5----5---|--5-5-5--5--5--5-5-5-|


  E  E  E  a S S  S S S  S S S S S
|------------7h9h10p9p7-------------|
|----------x------------10p8p7------|
|-9S12-12\---------------------9p7--|
|-----------------------------------|
|-----------------------------------|
|-----------------------------------|
|
| E  E  E    E    E   E    E   E
|-----------------------------------|
|-----------------------------------|
|-9--9--9----9----9---9----9---9S===|
|-----------------------------------|
|-7--7--7----7----7---7----7---7S===|
|-----------------------------------|
|
| E  E  E    E    E   E    E   E
|-----------------------------------|
|-----------------------------------|
|-----------------------------------|
|-7--7--7----7----7---7----7---7S===|
|-7--7--7----7----7---7----7---7S===|
|-5--5--5----5----5---5----5---5S===|


  E E E  E  E  E Q
|---------------------|
|---------------------|
|-9-7-9s12-12-12-9/---|
|---------------------|
|---------------------|
|---------------------|
|
| E E E  E  E  E E  E
|---------------------|
|---------------------|
|-4-4-4--4--4--4-4--4-|
|---------------------|
|-2-2-2--2--2--2-2--2-|
|---------------------|
|
| E E E  E  E  E E  E
|---------------------|
|---------------------|
|---------------------|
|-2-2-2--2--2--2-2--2-|
|-2-2-2--2--2--2-2--2-|
|-0-0-0--0--0--0-0--0-|


         PM------|         PM------|
   S  S  S  S  S  S  S  S  S  S  S  S  Q     W
|------------------------------------------|------------------|
|-17p14-------------17p14-------------17\--|------------------|
|-------15-15-15-15-------15-15-15-15------|------------------|
|------------------------------------------|------------------|
|------------------------------------------|------------------|
|------------------------------------------|------------------|
|
|  E     E     Q           E     E     Q     W
|------------------------------------------|------------------|
|------------------------------------------|------------------|
|--------5-----------------5-----------5---|------------------|
|------------------------------------------|------------------|
|--------3-----------------3-----------3---|------------------|
|------------------------------------------|------------------|
|
|              PM---|            PM          PM|   PM--|   PM
|  E     E     E     E     E     E     Q     E E E E E E E E
|------------------------------------------|------------------|
|------------------------------------------|------------------|
|------------------------------------------|------------------|
|--2-----3---------------------------------|------------------|
|--2-----3-----------------3-----------3---|-2-2-3-2-2-2-3-2--|
|--0-----1-----0-----0-----1-----0-----1---|-0-0-1-0-0-0-1-0--|


  Gtr II
  PM|   PM--|      PM|   PM--|   PM----|   PM--------------|
  E E E E E E Q    E E E E E E E E   E E E E S S S S S S S S
|----------------|-----------------|-------------------------|
|----------------|-----------------|-------------------------|
|----------------|-----------------|-------------------------|
|----------------|-----------------|-------------------------|
|-2-2-3-2-2-2-5--|-2-2-3-2-2-2-3-2-|-2-2-3-2-----------------|
|-0-0-1-0-0-0-3--|-0-0-1-0-0-0-1-0-|-0-0-1-0-3-2-0-0-2-1-0-0-|


  PM|   PM--|   PM----|   PM--|      PM|   PM--|   PM----|   PM--|
  E E E E E E E E   E E E E E E Q    E E E E E E E E   E E E E E E E E
|-----------------|----------------|-----------------|-----------------||
|-----------------|----------------|-----------------|-----------------||
|-----------------|----------------|-----------------|-----------------||
|-----------------|----------------|-----------------|-----------------||
|-2-2-3-2-2-2-3-2-|-2-2-3-2-2-2-5--|-2-2-3-2-2-2-3-2-|-2-2-3-2-2-2-3---||
|-0-0-1-0-0-0-1-0-|-0-0-1-0-0-0-3--|-0-0-1-0-0-0-1-0-|-0-0-1-0-0-0-1-0-||


 K
  $
  Gtr III
  Q      Q         Q       E     E       +Q       Q         Q       E     E
|-------15--------15------15----12----|-(12)-----15--------15------17----12----|
|-------18b20-----18b20---18b20-15b17-|-(15)-----18b20-----18b20---20b22-15b17-|
|-------------------------------------|----------------------------------------|
|-------------------------------------|----------------------------------------|
|-------------------------------------|----------------------------------------|
|-------------------------------------|----------------------------------------|
|
| Gtr IV
| Q   a  Q         Q       E     E       +Q       Q         Q       E     E
|-------------------------------------|----------------------------------------|
|-------------------------------------|----------------------------10----------|
|----10s12--------12------12-----9----|--(9)-----12--------12-------------9----|
|-------------------------------------|----------------------------------------|
|-------------------------------------|----------------------------------------|
|-------------------------------------|----------------------------------------|
|
| Gtr II
| Q   a  E    E a  E    E  E     E       +E  E a  E    E a  E    E  E     E
|-------------------------------------|----------------------------------------|
|-------------------------------------|----------------------------------------|
|-------------------------------------|----------------------------------------|
|-------------------------------------|----------------------------------------|
|-----5s=7------5s=7-------3----------|--------5s=7------5s=7-------3----------|
|-0-----------0---------0--1-----0----|--(0)-0---------0---------0--1-----0----|


   +Q       Q         Q       E     E       +Q     +H.
|-(12)-----15--------15------15----12----|-(12)---(12)\-----------|
|-(15)-----18b20-----18b20---18b20-15b17-|-(15)---(15)\-----------|
|----------------------------------------|------------------------|
|----------------------------------------|------------------------|
|----------------------------------------|------------------------|
|----------------------------------------|------------------------|
|
|  +Q       Q         Q       E     E       +Q     +H.
|----------------------------------------|------------------------|
|----------------------------------------|------------------------|
|--(9)-----12--------12------12-----9----|--(9)----(9)\-----------|
|----------------------------------------|------------------------|
|----------------------------------------|------------------------|
|----------------------------------------|------------------------|
|
|                                                   PM--------|
|  +E  E a  E    E a  E    E  E     E        E  E   E   E E E E E
|----------------------------------------|------------------------|
|----------------------------------------|------------------------|
|----------------------------------------|------------------------|
|----------------------------------------|------------------------|
|--------5s=7------5s=7-------3----------|----------3---3-4-4-5---|
|--(0)-0---------0---------0--1-----0----|---0--0---1---1-2-2-3-0-|


   Q        Q         Q       E     E       +Q       Q         Q       E     E
|----------15--------15------15----12----|-(12)-----15--------15------17----12----|
|----------18b20-----18b20---18b20-15b17-|-(15)-----18b20-----18b20---20b22-15b17-|
|----------------------------------------|----------------------------------------|
|----------------------------------------|----------------------------------------|
|----------------------------------------|----------------------------------------|
|----------------------------------------|----------------------------------------|
|
|  Q     a  Q         Q       E     E       +Q       Q         Q       E     E
|----------------------------------------|----------------------------------------|
|----------------------------------------|----------------------------10----------|
|-------10s12--------12------12-----9----|--(9)-----12--------12-------------9----|
|----------------------------------------|----------------------------------------|
|----------------------------------------|----------------------------------------|
|----------------------------------------|----------------------------------------|
|
| +E  E  a  E    E a  E    E  E     E       +E  E a  E    E a  E    E  E     E
|----------------------------------------|----------------------------------------|
|----------------------------------------|----------------------------------------|
|----------------------------------------|----------------------------------------|
|----------------------------------------|----------------------------------------|
|--------5s=7------5s=7-------3----------|--------5s=7------5s=7-------3----------|
|-(0)-0----------0---------0--1-----0----|--(0)-0---------0---------0--1-----0----|


                                                           To Coda
   +Q       Q         Q       E     E       +Q     +H.
|-(12)-----15--------15------15----12----|-(12)---(12)\-------------||
|-(15)-----18b20-----18b20---18b20-15b17-|-(15)---(15)\-------------||
|----------------------------------------|--------------------------||
|----------------------------------------|--------------------------||
|----------------------------------------|--------------------------||
|----------------------------------------|--------------------------||
|
|  +Q       Q         Q       E     E       +Q     +H          Q
|----------------------------------------|--------------------------||
|----------------------------------------|--------------------------||
|--(9)-----12--------12------12-----9----|--(9)----(9)\-------------||
|----------------------------------------|--------------------------||
|----------------------------------------|--------------------------||
|----------------------------------------|--------------------18\---||
|
|                                                   PM--------|
|  +E  E a  E    E a  E    E  E     E        E  E   E   E E E  E  E
|----------------------------------------|--------------------------||
|----------------------------------------|--------------------------||
|----------------------------------------|--------------------------||
|----------------------------------------|--------------------------||
|--------5s=7------5s=7-------3----------|----------3---3-4-4--5----||
|--(0)-0---------0---------0--1-----0----|---0--0---1---1-2-2--3----||


 L
  E E    +S  +S  E E E E a E
|----------------------------|
|----------------------------|
|---7b9==(7)r(7)p4-----------|
|------------------7-5-------|
|----------------------7-5h9-|
|-0--------------------------|
|
| Gtr II
|         PM------------------
| Q       E      E E E E   E
|----------------------------|
|----------------------------|
|----------------------------|
|----------------------------|
|----------------------------|
|-0-------0------0-0-0-0---0-|


                                                      ~
   E    E  E  E  E  E  Q     E E    +S  +S  E E E E a E
|--------------------------|----------------------------|
|--------------------------|----------------------------|
|--------------------------|---7b9==(7)r(7)p4-----------|
|------------------12-14\--|------------------7-5-------|
|---------10-12s14---------|----------------------7-5h7-|
|-12---12------------------|-0--------------------------|
|
|-|                                  PM---------------|
|  E a  E  E  E  E  E  Q     Q       E      E E E E   E
|--------------------------|----------------------------|
|--------------------------|----------------------------|
|-------------------7--9\--|----------------------------|
|----------5--7s=9---------|----------------------------|
|----5s=7------------------|----------------------------|
|--0-----------------------|-0-------0------0-0-0-0---0-|


   ~~~  PM   PM   ~~~
  +E    E  E E E  Q.         E E    +S  +S  E E E S S E
|--------------------------|----------------------------|
|--------------------------|----------------------------|
|--------------------------|---7b9==(7)r(7)p4---------7s|
|--------------7-----------|------------------7-5-7s9---|
|-(7)---7-10-7---10--------|----------------------------|
|--------------------------|-0--------------------------|
|
|            PM   ~~~                PM------------------
|  E  a E  E E E  Q   +E     Q       E      E E E E   E
|--------------------------|----------------------------|
|--------------------------|----------------------------|
|--------------------------|----------------------------|
|----------5---7--5---(5)\-|----------------------------|
|-----5s7----7-------------|----------------------------|
|--0-----------------------|-0-------0------0-0-0-0---0-|


  E  E  E     +S   S  E  E  E  E
|--------------------------------|
|--------------------------------|
|-9-12S14b16r(14)p12----------12-|
|--------------------14-12-14----|
|--------------------------------|
|--------------------------------|
|
|-|     PM---|           PM    PM
| E  E  E      E      E  E  E  E
|--------------------------------|
|--------------------------------|
|--------------------------------|
|----2----------------2-----2----|
|----2----------------2-----2----|
|-0--0--0------0------0--0--0--0-|


               |-3-|      |-3-|      |-3-|
   a  Q   S S  S S S S S  S S S S  S S S S
|------------------------------------------|
|------------------------------------------|
|-14h15S==7-9-10p9p7-----------------------|
|--------------------7-9-10p9p7S5--7-8p7p5-|
|------------------------------------------|
|------------------------------------------|
|
|     Q.       Q.               Q
|------------------------------------------|
|------------------------------------------|
|------------------------------------------|
|------------------------------------------|
|-----7\------------------------7\---------|
|--------------0---------------------------|


  E E E E Q  +E    +E    E E    +S  +S  E E E E a E
|----------------------|-----------------------------|
|----------------------|-----------------------------|
|----------------------|---7b9==(7)r(7)p4------------|
|-------5-7--(7)b9-(7)-|-x----------------7-5--------|
|-7-5-7----------------|-x--------------------7-5s7--|
|----------------------|-----------------------------|
|
|       PM                       PM---------------|
| E Q   E Q   Q          Q       E      E E E E   E
|----------------------|-----------------------------|
|----------------------|-----------------------------|
|----------------------|-----------------------------|
|----------------------|-----------------------------|
|---------7S==2--------|-----------------------------|
|---0---0-----0--------|-0-------0------0-0-0-0---0--|


  +E     E  E  E  E  E  Q
|---------------------------|
|---------------------------|
|---------------------------|
|-------------------12-14\--|
|-(7)------10-12s14---------|
|-------12------------------|
|
|  PM
|  E  a  E  E  E  E  E  Q
|---------------------------|
|---------------------------|
|--------------------7--9\--|
|-----------5--7s=9---------|
|-----5s=7------------------|
|--0------------------------|


                           ~~~~~~~~  PM   PM   ~~~
  E E    +S  +S  E E E E a E   +E    E  E E E  Q.
|----------------------------|--------------------------|
|----------------------------|--------------------------|
|---7b9==(7)r(7)p4-----------|--------------------------|
|------------------7-5-------|--------------7-----------|
|----------------------7-5h7-|-(7)---7-10-7---10--------|
|-0--------------------------|--------------------------|
|
|         PM---------------|              PM   ~~~
| Q       E      E E E E   E    E  a E  E E E  Q   +E
|----------------------------|--------------------------|
|----------------------------|--------------------------|
|----------------------------|--------------------------|
|----------------------------|----------5---7--5---(5)\-|
|----------------------------|-----5s7----7-------------|
|-0-------0------0-0-0-0---0-|--0-----------------------|


                                                      |--3--|
  E E    +S  +S  E E E a E E   S  S S S E +E    S  S  S  S  S  Q
|----------------------------|-----------------10h12h13p12p10-12S==|
|----------------------------|-------------------------------------|
|---7b9==(7)r(7)p4---------7-|-9h10p9p7-9-(9)/---------------------|
|------------------7-5-7s9---|-------------------------------------|
|----------------------------|-------------------------------------|
|-0--------------------------|-------------------------------------|
|
|         PM-------------------|        PM|           PM
| Q       E      E E E   E E   E    E   E  E    E     E        Q
|----------------------------|-------------------------------------|
|----------------------------|-------------------------------------|
|----------------------------|-------------------------------------|
|----------------------------|------2-----------2--------------2---|
|----------------------------|------2-----------2--------------2---|
|-0-------0------0-0-0---0-0-|-0----0---0--0----0-----0--------0---|


  a S S S S S S S S S  S S S  S  S  S S    S  S  S S  S  S  S S  Q.      +E
|-0h3h5p3p0h5h7p5p0h7h10p7p0h10h12p10p0h|=12h15p12p0h15h17p15p0h17b19---(17)-||
|---------------------------------------|------------------------------------||
|---------------------------------------|------------------------------------||
|---------------------------------------|------------------------------------||
|---------------------------------------|------------------------------------||
|---------------------------------------|------------------------------------||
|
| a S S S S S S S S S  S S S  S  S  S S    S  S  S S  S  S  S S  Q.      +E
|---------------------------------------|------------------------------------||
|---------------------------------------|------------------------------------||
|---------------------------------------|------------------------------------||
|---------------------------------------|------------------------------------||
|---------------------------------------|------------------------------------||
|-0h3h5p3p0h5h7p5p0h7h10p7p0h10h12p10p0h|=12h15p12p0h15h17p15p0h17b19---(17)-||


 M
        PM   PM                PM
   E a  E E  E E  E     +S  S  E
|--------------------------------|
|--------------------------------|
|-<5>-----9----9-11b13r(11)p9----|
|----9s11---11----------------11-|
|--------------------------------|
|--------------------------------|
|
| Gtr VI
|         PM|     PM---|
|  E    E E  E E  E      E     E
|--------------------------------|
|--------------------------------|
|--------------------------------|
|--------------------------------|
|--5h===7------7---------------7-|
|---------0--0----0------0-------|


     PM                    ~~~             PM
  E  E E  E  +E       +E   Q      +E  E E  E E  E     +S  S  E
|------------------------------|-------------------------------|
|--------12-(12)b14==(12)-12r--|-(12)--------------------------|
|-9----9-----------------------|--------9----9-11b13r(11)p9----|
|---11-------------------------|-----11---11----------------11-|
|------------------------------|-------------------------------|
|------------------------------|-------------------------------|
|
| PM   PM|             PM  ~~~          PM|     PM---|
| E  E E  E   E        E   Q       E  E E  E E  E      E     E
|------------------------------|-------------------------------|
|------------------------------|-------------------------------|
|------------------------------|-------------------------------|
|------------------------------|-------------------------------|
|----7--------7------------7---|---5h=7------7---------------7-|
|-0----0--0------------0-------|--------0--0----0------0-------|


                                     PM   PM
   E    E   E  E +E  E  E E   +E  a  E E  E E  E     +S  S  E
|---------------------------|---------------------------------|
|---------------------------|---------------------------------|
|-[9]s[11]s[9]--------------|----------9----9-11b13r(11)p9----|
|--------------9-(9)-9s11-9-|-(9)S6S11---11----------------11-|
|---------------------------|---------------------------------|
|---------------------------|---------------------------------|
|
|  PM       PM-|     PM ~~             PM|     PM---|
|  E    E   E  E  E  E  Q      E     E E  E E  E      E     E
|---------------------------|---------------------------------|
|---------------------------|---------------------------------|
|---------------------------|---------------------------------|
|---------------------------|---------------------------------|
|-------7---------7-----8---|--5h====7------7---------------7-|
|--0--------0--0-----0------|----------0--0----0------0-------|


     PM|
  E  E E  E  +E       +E   a  +E  S  S
|---------------------------------------|
|--------12-(12)b14==(12)-12r(12)-------|
|-9----9--------------------------9h11h=|
|---11----------------------------------|
|---------------------------------------|
|---------------------------------------|
|
| PM   PM|             PM      ~~~~
| E  E E  E   E        E       Q
|---------------------------------------|
|---------------------------------------|
|---------------------------------------|
|---------------------------------------|
|----7--------7----------------7--------|
|-0----0--0------------0----------------|


   |-3--|       |-----6------| |--3--|       |-----6------|
   S  S S S  S  S  S S  S  S S S  S  S S  S  S  S S  S  S S
|-----------------------------------------------------------|
|---------9h11h12p11p9-----------------9h11h12p11p9---------|
|-12p11p9--------------12p11p9-9h11h12--------------12p11p9-|
|-----------------------------------------------------------|
|-----------------------------------------------------------|
|-----------------------------------------------------------|
|
|               PM-----|               PM---|
|  E      E     E       E      E       E     E       E
|-----------------------------------------------------------|
|-----------------------------------------------------------|
|-----------------------------------------------------------|
|-----------------------------------------------------------|
|--5h=====7--------------------7---------------------7------|
|---------------0-------0--------------0-----0--------------|


   E     +S  S  E E +Q.     +E
|--------------------------------|
|--------------------------------|
|-11b12r(11)p9-11-9-(9)-----(9)/-|
|--------------------------------|
|--------------------------------|
|--------------------------------|
|
|  PM           PM|     PM~
|  E      E     E E  E  E Q
|--------------------------------|
|--------------------------------|
|--------------------------------|
|--------------------------------|
|---------7----------7----8------|
|--0------------0-0-----0--------|


    S  S  S  S  S  S  S  S  S  S  S  S  S  S  S  S
|--------------------------------------------------|
|--------------------------------------------------|
|-/16h21p16p15-16h20p16p15-16h21p16p15-16h20p16p15-|
|--------------------------------------------------|
|--------------------------------------------------|
|--------------------------------------------------|
|
|               PM---|            PM---|
|   E     E     E     E     E     E     E     E
|--------------------------------------------------|
|--------------------------------------------------|
|--------------------------------------------------|
|--------------------------------------------------|
|---5h====7-----------------7-----------------7----|
|---------------0-----0-----------0-----0----------|


   S  S  S  S  S  S  S  S  S  S  S  S  S  S  S  S    S  S  S  S  S  S  S  S  S  S  S  S  S  S  S  S
|------------------------------------------------|------------------------------------------------|
|------------------------------------------------|------------------------------------------------|
|16h21p16p15-16h20p16p15-16h21p16p15-16h20p16p15-|-16h21p16p15-16h20p16p15-16h21p16p15-16h20p16p15|
|-------------------------------------------------|-----------------------------------------------|
|------------------------------------------------|------------------------------------------------|
|-------------------------------------------------|-----------------------------------------------|
|
|  PM          PM---|            PM    ~~~                       PM---|            PM---|
|  E     E     E     E     E     E     Q             E     E     E     E     E     E     E     E
|-------------------------------------------------|-----------------------------------------------|
|-------------------------------------------------|-----------------------------------------------|
|-------------------------------------------------|-----------------------------------------------|
|-------------------------------------------------|-----------------------------------------------|
|--------7-----------------7-----------7----------|--5h====7-----------------7-----------------7--|
|--0-----------0-----0-----------0----------------|--------------0-----0-----------0-----0--------|


   S  S  S  S  S  S  E  E.      +S   E  S  S
|--------------------------------------------|
|--------------------------------------10h12-|
|-16h20p16p15-16h20p16-19b21---(19)\---------|
|--------------------------------------------|
|--------------------------------------------|
|--------------------------------------------|
|
|  PM          PM---|        PM      ~
|  E     E     E     E  E    E       Q
|--------------------------------------------|
|--------------------------------------------|
|--------------------------------------------|
|--------------------------------------------|
|--------7--------------7------------5-------|
|--0-----------0-----0-------0---------------|


   T     T           T     T           T     T           T     T
   |------6-------|  |------6-------|  |------6-------|  |--3--|
   S  S  S  S  S  S  S  S  S  S  S  S  S  S  S  S  S  S  S  S  S  S  S
|------------------------------------------------------------------------|
|-17p12-17p12p11p10-17p12-17p12p11p10-17p12-17p12p11p10-17p12-17p12s15---|
|------------------------------------------------------------------------|
|------------------------------------------------------------------------|
|------------------------------------------------------------------------|
|------------------------------------------------------------------------|
|
|                    PM------|                  PM------|
|  E        E        E        E        E        E        E        E
|------------------------------------------------------------------------|
|------------------------------------------------------------------------|
|------------------------------------------------------------------------|
|------------------------------------------------------------------------|
|--5h=======7--------------------------7--------------------------7------|
|--------------------0--------0-----------------0--------0---------------|


   T     T           T     T           T     T           T     T
   |------6-------|  |------6-------|  |------6-------|  |--3--|
   S  S  S  S  S  S  S  S  S  S  S  S  S  S  S  S  S  S  S  S  S  S  S
|----------------------------------------------------------------------|
|-20p15-20p15p14p13-20p15-20p15p14p13-20p15-20p15p14p13-20p15-20p15p14-|
|----------------------------------------------------------------------|
|----------------------------------------------------------------------|
|----------------------------------------------------------------------|
|----------------------------------------------------------------------|
|
|  PM                PM------|                  PM       ~~~
|  E        E        E        E        E        E        Q
|----------------------------------------------------------------------|
|----------------------------------------------------------------------|
|----------------------------------------------------------------------|
|----------------------------------------------------------------------|
|-----------7--------------------------7-----------------7-------------|
|--0-----------------0--------0-----------------0----------------------|


   T     T           T     T           T     T           T     T
   |------6-------|  |------6-------|  |------6-------|  |------6-------|
   S  S  S  S  S  S  S  S  S  S  S  S  S  S  S  S  S  S  S  S  S  S  S  S
|---------------------------------------------------------------------------|
|-19p15-19p15p14p13-19p15-19p15p14p13-19p15-20p15p14p13-19p15-20p15p14p13---|
|---------------------------------------------------------------------------|
|---------------------------------------------------------------------------|
|---------------------------------------------------------------------------|
|---------------------------------------------------------------------------|
|
|                    PM------|                  PM------|
|  E        E        E        E        E        E        E        E
|---------------------------------------------------------------------------|
|---------------------------------------------------------------------------|
|---------------------------------------------------------------------------|
|---------------------------------------------------------------------------|
|--5h=======7--------------------------7--------------------------7---------|
|--------------------0--------0-----------------0--------0------------------|


              ~~~~~
   Q     Q    H                  +E  E      E      E      E      +E  E  E
|----------------------12b14-||-(12)12pb13-12pb14-12pb13-12pb14r(12)-9--9-|
|-17----17---17b19-----------||----------------------------------------12-|
|----------------------------||-------------------------------------------|
|----------------------------||-------------------------------------------|
|----------------------------||-------------------------------------------|
|----------------------------||-------------------------------------------|
|  H.                E  E
|
|  PM    PM|       PM~                      PM----|               PM-|
|  E  E  E E  E    E Q            E  E      E      E      E       E  E  E
|----------------------------||-------------------------------------------|
|----------------------------||-------------------------------------------|
|----------------------------||-------------------------------------------|
|----------------------------||-------------------------------------------|
|-----7-------7------5-------||---5h=7--------------------7-------------7-|
|--0-----0-0-------0---------||-------------0------0--------------0--0----|


   +E  E  E     E  E       E  E      E
|--(9)-9--------9----------9--------12b14-|
|-(12)---12pb13---12pb13.5---12pb14-------|
|-----------------------------------------|
|-----------------------------------------|
|-----------------------------------------|
|-----------------------------------------|
|
|   PM    PM----|          PM ~~~~~~
|   E  E  E     E  E       E  Q
|-----------------------------------------|
|-----------------------------------------|
|-----------------------------------------|
|-----------------------------------------|
|------7-----------7----------7-----------|
|---0-----0-----0----------0--------------|


                                      ~~~~~~~~~
   +E  E      E      E  E     +E   E  E    +Q     E  E  Q.          E
|-(12)12pb13-12pb14-12-14b16r(14)-12----|-----------------------------|
|------------------------------------14-|-(14)---14-12-14b16\-----/14-|
|---------------------------------------|-----------------------------|
|---------------------------------------|-----------------------------|
|---------------------------------------|-----------------------------|
|---------------------------------------|-----------------------------|
|
|             PM----|          PM-|         PM    PM|         PM~
|   E  E      E      E  E      E   E  E     E  E  E  E  E     E Q
|---------------------------------------|-----------------------------|
|---------------------------------------|-----------------------------|
|---------------------------------------|-----------------------------|
|---------------------------------------|-----------------------------|
|---5h=7----------------7-------------7-|------7--------7-------8-----|
|-------------0------0---------0---0----|---0-----0--0--------0-------|


  |-----6------|  |--3--|       |--3--|      |-----6------|
  S  S  S  S S S  S  S  S S  S  S  S  S S S  S  S  S S S  S
|-9h11-12-12p9-9-11h12-12-9S12-14h15-15S9-9-11h12-12-9-9h11-|
|-----------------------------------------------------------|
|-----------------------------------------------------------|
|-----------------------------------------------------------|
|-----------------------------------------------------------|
|-----------------------------------------------------------|
|
|                 PM------|             PM--|
| E        E      E       E     E       E    E       E
|-----------------------------------------------------------|
|-----------------------------------------------------------|
|-----------------------------------------------------------|
|-----------------------------------------------------------|
|-5h=======7--------------------7--------------------7------|
|-----------------0-------0-------------0----0--------------|


                       |--3--|       |--3--|
   S S S  S  S  S S S  S  S  S S  S  S  S  S S S
|-12-9-9S14-16-17S9-9-11-12p11-9S12-14-15p14S9-9--|
|-------------------------------------------------|
|-------------------------------------------------|
|-------------------------------------------------|
|-------------------------------------------------|
|-------------------------------------------------|
|
|  PM        PM---|            PM    ~~
|  E   E     E    E    E       E     Q
|-------------------------------------------------|
|-------------------------------------------------|
|-------------------------------------------------|
|-------------------------------------------------|
|------7---------------7-------------7------------|
|--0---------0----0------------0------------------|


   S  S  S S  S  S S S  E    E  E E
|-11-12-11-9------------------------|
|------------12-11-9-9-------9-12-9-|
|----------------------11b12--------|
|-----------------------------------|
|-----------------------------------|
|-----------------------------------|
|
|             PM---|         PM|
|  E     E    E    E    E    E  E E
|-----------------------------------|
|-----------------------------------|
|-----------------------------------|
|-----------------------------------|
|--5h====7--------------7---------7-|
|-------------0----0---------0--0---|


   |---3----|  |---3----|  |----3-----|  |---3----|
   E    E   E  E    E   E  E     E    E  E     E  E
|-----------9-----------9------------10----------11-|
|-------9-----------9-----------10------------11----|
|-11b13-------11b13-------12b14---------13b15-------|
|---------------------------------------------------|
|---------------------------------------------------|
|---------------------------------------------------|
|
|  PM          PM-----|            PM    ~~~~~
|  E      E    E      E    E       E     Q
|---------------------------------------------------|
|---------------------------------------------------|
|---------------------------------------------------|
|---------------------------------------------------|
|---------7----------------7-------------8----------|
|--0-----------0------0------------0----------------|


  Q      Q         Q       E     E       +Q       Q         Q       E     E
|-------15--------15------15----12----|-(12)-----15--------15------17----12----|
|-------18b20-----18b20---18b20-15b17-|-(15)-----18b20-----18b20---20b22-15b17-|
|-------------------------------------|----------------------------------------|
|-------------------------------------|----------------------------------------|
|-------------------------------------|----------------------------------------|
|-------------------------------------|----------------------------------------|
|
| Gtr IV
| Q   a  Q         Q       E     E       +Q       Q         Q       E     E
|-------------------------------------|----------------------------------------|
|-------------------------------------|----------------------------10----------|
|----10s12--------12------12-----9----|--(9)-----12--------12-------------9----|
|-------------------------------------|----------------------------------------|
|-------------------------------------|----------------------------------------|
|-------------------------------------|----------------------------------------|
|
| Gtr II
| Q   a  E    E a  E    E  E     E       +E  E a  E    E a  E    E  E     E
|-------------------------------------|----------------------------------------|
|-------------------------------------|----------------------------------------|
|-------------------------------------|----------------------------------------|
|-------------------------------------|----------------------------------------|
|-----5s=7------5s=7-------3----------|--------5s=7------5s=7-------3----------|
|-0-----------0---------0--1-----0----|--(0)-0---------0---------0--1-----0----|


   +Q       Q         Q       E     E       +Q     +H.
|-(12)-----15--------15------15----12----|-(12)---(12)\-----------|
|-(15)-----18b20-----18b20---18b20-15b17-|-(15)---(15)\-----------|
|----------------------------------------|------------------------|
|----------------------------------------|------------------------|
|----------------------------------------|------------------------|
|----------------------------------------|------------------------|
|
|  +Q       Q         Q       E     E       +Q     +H.
|----------------------------------------|------------------------|
|----------------------------------------|------------------------|
|--(9)-----12--------12------12-----9----|--(9)----(9)\-----------|
|----------------------------------------|------------------------|
|----------------------------------------|------------------------|
|----------------------------------------|------------------------|
|
|                                                   PM--------|
|  +E  E a  E    E a  E    E  E     E        E  E   E   E E E E E
|----------------------------------------|------------------------|
|----------------------------------------|------------------------|
|----------------------------------------|------------------------|
|----------------------------------------|------------------------|
|--------5s=7------5s=7-------3----------|----------3---3-4-4-5---|
|--(0)-0---------0---------0--1-----0----|---0--0---1---1-2-2-3-0-|


   Q        Q         Q       E     E       +Q       Q         Q       E     E
|----------15--------15------15----12----|-(12)-----15--------15------17----12----|
|----------18b20-----18b20---18b20-15b17-|-(15)-----18b20-----18b20---20b22-15b17-|
|----------------------------------------|----------------------------------------|
|----------------------------------------|----------------------------------------|
|----------------------------------------|----------------------------------------|
|----------------------------------------|----------------------------------------|
|
|  Q     a  Q         Q       E     E       +Q       Q         Q       E     E
|----------------------------------------|----------------------------------------|
|----------------------------------------|----------------------------10----------|
|-------10s12--------12------12-----9----|--(9)-----12--------12-------------9----|
|----------------------------------------|----------------------------------------|
|----------------------------------------|----------------------------------------|
|----------------------------------------|----------------------------------------|
|
| +E  E  a  E    E a  E    E  E     E       +E  E a  E    E a  E    E  E     E
|----------------------------------------|----------------------------------------|
|----------------------------------------|----------------------------------------|
|----------------------------------------|----------------------------------------|
|----------------------------------------|----------------------------------------|
|--------5s=7------5s=7-------3----------|--------5s=7------5s=7-------3----------|
|-(0)-0----------0---------0--1-----0----|--(0)-0---------0---------0--1-----0----|


   +Q       Q         Q       E     E       +Q     +H.
|-(12)-----15--------15------15----12----|-(12)---(12)\-----------||
|-(15)-----18b20-----18b20---18b20-15b17-|-(15)---(15)\-----------||
|----------------------------------------|------------------------||
|----------------------------------------|------------------------||
|----------------------------------------|------------------------||
|----------------------------------------|------------------------||
|
|  +Q       Q         Q       E     E       +Q     +H.
|----------------------------------------|------------------------||
|----------------------------------------|------------------------||
|--(9)-----12--------12------12-----9----|--(9)----(9)\-----------||
|----------------------------------------|------------------------||
|----------------------------------------|------------------------||
|----------------------------------------|------------------------||
|
|                                                   PM--------|
|  +E  E a  E    E a  E    E  E     E        E  E   E   E E E E E
|----------------------------------------|------------------------||
|----------------------------------------|------------------------||
|----------------------------------------|------------------------||
|----------------------------------------|------------------------||
|--------5s=7------5s=7-------3----------|----------3---3-4-4-5---||
|--(0)-0---------0---------0--1-----0----|---0--0---1---1-2-2-3---||


 N
  E E    +S  +S  E E E E a E
|------------------------------|
|------------------------------|
|---7b9==(7)r(7)-4-------------|
|------------------7-5---------|
|----------------------7-5h7b9r|
|-0----------------------------|
|
| Gtr II
|         PM--------------------
| Q       E      E E E E   E
|------------------------------|
|------------------------------|
|------------------------------|
|------------------------------|
|-2----------------------------|
|-0-------0------0-0-0-0---0---|


  +E    E E E E E Q     E  E  E  E  S  E    S  E  E
|---------------------|-----------------------------|
|---------------------|---15-17-15------------------|
|---------------7-9\--|------------17s14p==12-------|
|---------5h7s9-------|-----------------------14-12-|
|-(7)---7-------------|-----------------------------|
|---------------------|-0---------------------------|
|
|-|                           PM-----------------|
|  E  a E E E E E Q     Q     E  E  E    E     E  E
|---------------------|-----------------------------|
|---------------------|-----------------------------|
|---------------7h9\--|-----------------------------|
|---------5h7s9-------|-----------------------------|
|-----5s7-------------|-----------------------------|
|--0------------------|-0-----0--0--0----0-----0--0-|


                                           ~~~
   E     Q  E    a  a  a  a  E     Q       E
|--------------------------------------------|
|---------------------13h17s20b22-20------17-|
|-14b15-14---------14------------------------|
|---------------15---------------------------|
|--------------------------------------------|
|--------------------------------------------|
|
|           PM|
|  E     Q  S S              E     Q       E
|--------------------------------------------|
|--------------------------------------------|
|--------------------------------------------|
|--7-----5-------------------7-----5b5.5-----|
|-----------7-7----------------------------7-|
|--------------------------------------------|


 ~~~~~~~
   +E    E  E  E   E     +E   Q       E     +E   a  E  E  E  E  Q
|----------------------------------|---------------------------------|
|-(17)--15-17-15\------------------|------------------17-------------|
|-----------------14b16r(14)-12\---|---------------------------------|
|----------------------------------|---------------------------------|
|----------------------------------|-12b13r(12)-12s19----19s12-10----|
|----------------------------------|---------------------------------|
|
|           PM-----------------------|              PM|      PM   PM
|  +Q       E  E   E      E   E  E    E      E      E  E  E  E  E E
|----------------------------------|---------------------------------|
|----------------------------------|---------------------------------|
|----------------------------------|---------------------------------|
|----------------------------------|---------2------------2-----2----|
|--(7)\----------------------------|---------2------------2-----2----|
|-----------0--0---0------0---0--0-|--0------0------0--0--0--0--0-0--|


   S     S  S  S  S  S  S   S  S  S  S  S  S  S  S  S
|-----------------------------------------------------|
|-----------------------------------------------------|
|-----------------------------------12h15-------12h15-|
|----------------12h15--------12h15-------12h15-------|
|----------12h15-------12h=15-------------------------|
|-12h===15--------------------------------------------|
|
|  \1.5_________________|
|  Q.                  +E      H
|-----------------------------------------------------|
|-----------------------------------------------------|
|--5-------------------(5)----------------------------|
|--5-------------------(5)-----2----------------------|
|--3-------------------(3)-----2----------------------|
|------------------------------0----------------------|


   S     S  S  S  S  S  E  Q.      +E
|----------12h15p12---------------------|
|-12h===15----------15-12-15b17---(15)--|
|---------------------------------------|
|---------------------------------------|
|---------------------------------------|
|---------------------------------------|
|
|  /0.5____________________|
|  H                      +H
|---------------------------------------|
|---------------------------------------|
|---------------------------------------|
|--5----------------------(5)-----------|
|--5----------------------(5)-----------|
|--3----------------------(3)-----------|


       PM   PM                 PM     PM                  ~~~~~~~~
  E a  E E  E E  E      +S  S  E   E  E E  E  +Q          Q
|--------------------------------|-------------------------------|
|--------------------------------|--------12-(12)b12.5---12pb14--|
|-x------9----9-11b13==(11)p9----|-9----9------------------------|
|-x-9s11---11-----------------11-|---11--------------------------|
|--------------------------------|-------------------------------|
|--------------------------------|-------------------------------|
|
| Gtr VI
|        PM|     PM----|           PM   PM|            PM ~~~~~~
| E    E E  E E  E       E     E   E  E E  E   E       E  Q
|--------------------------------|-------------------------------|
|--------------------------------|-------------------------------|
|--------------------------------|-------------------------------|
|--------------------------------|-------------------------------|
|-5h===7------7----------------7-|----7--------7----------7------|
|--------0--0----0-------0-------|-0----0--0-----------0---------|


 ~~~~~~~ PM   PM                 PM
   +E    E E  E E  E      +S  S  E
|----------------------------------|
|-(12)\----------------------------|
|----------9----9-11b13==(11)p9----|
|-------11---11-----------------11-|
|----------------------------------|
|----------------------------------|
|
|          PM|     PM----|
|   E    E E  E E  E       E     E
|----------------------------------|
|----------------------------------|
|----------------------------------|
|----------------------------------|
|---5h===7------7----------------7-|
|----------0--0----0-------0-------|


         ~~~~~~              PM   PM                 PM
  E  E E E +E  E  E E   E a  E E  E E  E      +S  S  E
|---------------------|--------------------------------|
|---------------------|--------------------------------|
|-9s11s9--------------|--------9----9-11b13==(11)p9----|
|--------9-(9)-9s11-9s|=4-9s11---11-----------------11-|
|---------------------|--------------------------------|
|---------------------|--------------------------------|
|
| PM   PM|     PM ~~           PM|     PM----|
| E  E E E  E  E  Q     E    E E  E E  E       E     E
|---------------------|--------------------------------|
|---------------------|--------------------------------|
|---------------------|--------------------------------|
|---------------------|--------------------------------|
|----7------7-----8---|-5h===7------7----------------7-|
|-0----0-0-----0------|--------0--0----0-------0-------|


  E  E E  E  +E       +E   a  +Q
|----------------------------------|
|--------12-(12)b14==(12)-12r(12)--|
|-9----9---------------------------|
|---11-----------------------------|
|----------------------------------|
|----------------------------------|
|
| PM   PM|             PM      ~~~~
| E  E E  E   E        E       Q
|----------------------------------|
|----------------------------------|
|----------------------------------|
|----------------------------------|
|----7--------7----------------7---|
|-0----0--0------------0-----------|


                PM----------------|
        |-3--|                             |-3--|
  S  S  S  S S  S S  S  S S  S  S  S S  S  S  S S
|-------------------------------------------------|
|-------------------------------------------------|
|------------------------------------9h11h12p11p9-|
|-9h11h12p11p9------------9-11-12-12--------------|
|--------------12-9-12-12-------------------------|
|-------------------------------------------------|
|
|               PM--|           PM---|
| E     E       E    E    E     E    E     E
|-------------------------------------------------|
|-------------------------------------------------|
|-------------------------------------------------|
|-------------------------------------------------|
|-5h====7-----------------7----------------7------|
|---------------0----0----------0----0------------|


   PM----------------|
                              |-3--|
   S S  S  S S  S  S  S S  S  S  S S  Q
|-----------------------9h11h12p11p9------|
|-----------------------------------------|
|------------9-11-12-12--------------12\--|
|-12-9-12-12------------------------------|
|-----------------------------------------|
|-----------------------------------------|
|
|  PM        PM---|           PM      ~~~
|  E    E    E     E    E     E       Q
|-----------------------------------------|
|-----------------------------------------|
|-----------------------------------------|
|-----------------------------------------|
|-------7---------------7-------------8---|
|--0---------0-----0----------0-----------|


    E  E  E  E   E  E  E  E     E  E  E  E  E  E  E  E
|---------------------------|--------------------------|
|-/15-15-15-15-/15-15-15-15-|-/15-15-14-14-13-13-12-12-|
|-/16-16-16-16-/16-16-16-16-|-/16-16-15-15-14-14-12-12-|
|---------------------------|--------------------------|
|---------------------------|--------------------------|
|---------------------------|--------------------------|
|
|         PM|       PM|         PM    PM|      PM ~~
|   E  E  E  E   E  E  E  E     E  E  E  E  E  E  Q
|---------------------------|--------------------------|
|---------------------------|--------------------------|
|---------------------------|--------------------------|
|---------------------------|--------------------------|
|---5h=7---------7--------7-|------7--------7-----7----|
|---------0--0------0--0----|---0-----0--0-----0-------|


   |--3--|           |--3--|
   S  S  S  E  S  S  S  S  S  E  E  E     +E
|----------------------------------------------|
|----------13s16s13----------------------------|
|-12h14h15----------15p14p12-14-12-14b15r(14)\-|
|----------------------------------------------|
|----------------------------------------------|
|----------------------------------------------|
|
|              PM---|            PM|
|  E        E  E     E        E  E  E      E
|----------------------------------------------|
|----------------------------------------------|
|----------------------------------------------|
|----------------------------------------------|
|--5h=======7-----------------7------------7---|
|--------------0-----0-----------0--0----------|


                              PM------|   ~~
   |--3--|           |--3--|
   S  S  S  E  S  S  S  S  S  S  S  S  S  E  +E
|-------------------------------------------------|
|----------12s17s12-------------------------------|
|-12h14h15----------15p14p12-------------12-(12)\-|
|----------------------------15-14-12-12----------|
|-------------------------------------------------|
|-------------------------------------------------|
|
|  PM          PM---|               PM    ~~
|  E        E  E     E        E     E     Q
|-------------------------------------------------|
|-------------------------------------------------|
|-------------------------------------------------|
|-------------------------------------------------|
|-----------7-----------------7-----------5-------|
|--0-----------0-----0--------------0-------------|


   |--3--|        |--3--|        |--3--|        |--3--|
   S  S  S  S  S  S  S  S  S  S  S  S  S  S  S  S  S  S  S  S
|-------------------------------------------------------------|
|-------------------------------------------------------------|
|----------------------------------------------12h14h15-15-15-|
|-------------------------------12h14h15-15-15----------------|
|----------------12h14h15-15-15-------------------------------|
|-12h14h15-15-15----------------------------------------------|
|
|                 PM------|               PM---|
|  E        E     E        E     E        E     E        E
|-------------------------------------------------------------|
|-------------------------------------------------------------|
|-------------------------------------------------------------|
|-------------------------------------------------------------|
|--5h=======7--------------------7-----------------------7----|
|-----------------0--------0--------------0-----0-------------|


   ~~
                              |---3----|
   Q    E  E  E     +E       +E   +E   E
|----------------------------------------|
|-12---15-12-15b17r(15)b17==(15)r(15)p12-|
|----------------------------------------|
|----------------------------------------|
|----------------------------------------|
|----------------------------------------|
|
|  PM   PM|          PM       ~~~~~
|  E E  E  E  E      E        Q
|----------------------------------------|
|----------------------------------------|
|----------------------------------------|
|----------------------------------------|
|----7--------7---------------7----------|
|--0----0--0---------0-------------------|


   S  S  S  S  S  S  S  S  S  S  S  S  E  S  S
|----------------------------------------------|
|-14-15-14-12----------------------------------|
|-------------15-15-13-12----------------------|
|-------------------------15-15-13-12----------|
|-------------------------------------15S12-12-|
|----------------------------------------------|
|
|              PM---|            PM---|
|  E     E     E     E     E     E     E  E
|----------------------------------------------|
|----------------------------------------------|
|----------------------------------------------|
|----------------------------------------------|
|--5h====7-----------------7--------------7----|
|--------------0-----0-----------0-----0-------|


              ~~                                  PM           PM
   Q    E  E  Q    Q     E Q.      Q     +Q       E Q     +E   E Q     +E
|----------------------|------------------------|---------------------------|
|----------------------|---5-------5-----(5)\---|---4-----(4)\---3-----(3)\-|
|----------------------|---7b9-----7b9---(7)\---|---6b8---(6)\---5b7---(5)\-|
|----------------------|------------------------|---------------------------|
|-10---12-13-14---12\--|------------------------|-0------------0------------|
|----------------------|-0----------------------|-0------------0------------|
|
|  PM   PM|     PM ~~~         PM|     PM|        PM    PM|      PM  ~
|  E E  E  E  E E  Q     E E   E E E   E  E   E   E E   E  E   E E   Q
|----------------------|------------------------|---------------------------|
|----------------------|------------------------|---------------------------|
|----------------------|------------------------|---------------------------|
|----------------------|------------------------|---------------------------|
|----7--------7----5---|-5h7-------7----------7-|---7----------7-----7------|
|--0----0--0----0------|-------0-0-----0--0-----|-0-----0--0-----0----------|


    /2_____|
                                              |--3--|
  E Q     +E  E  Q      +E    S  S S S  S  S  S  S  S  a  Q.      E
|---------------------------|----------------------10h12s15------15b17-|
|---------------------------|-------------------10---------------------|
|---2-----(2)---------------|----------------11------------------------|
|-0-------------------------|--------7s10h12---------------------------|
|---------------------------|------9-----------------------------------|
|-------------0-[3]b5r==(3)-|-7h10-------------------------------------|
|
|       PM|      PM---|       PM        PM---|               PM~
| E E   E  E  E  E    E  E    E    E    E     E           E  E Q
|---------------------------|------------------------------------------|
|---------------------------|------------------------------------------|
|---------------------------|------------------------------------------|
|---------------------------|------------------------------------------|
|-5h7---------7----------7--|------7----------------------7----5-------|
|-------0--0-----0----0-----|-0---------0-----0--------------0---------|


   +E  E      E      E      E     +E   E  E
|-(15)15pb16-15pb17-15pb16-15b17r(15)-12-12--|
|----------------------------------------15--|
|--------------------------------------------|
|--------------------------------------------|
|--------------------------------------------|
|--------------------------------------------|
|
|             PM----|              PM-|
|   E  E      E      E      E      E   E  E
|--------------------------------------------|
|--------------------------------------------|
|--------------------------------------------|
|--------------------------------------------|
|---5h=7--------------------7-------------7--|
|-------------0------0-------------0---0-----|


   +E   E  E      E  E      E  E      E
|-(12)-12--------12--------12--------15b17-|
|-(15)----15pb16----15pb16----15pb17-------|
|------------------------------------------|
|------------------------------------------|
|------------------------------------------|
|------------------------------------------|
|
|   PM     PM----|          PM ~~~~~~
|   E   E  E      E  E      E  Q
|------------------------------------------|
|------------------------------------------|
|------------------------------------------|
|------------------------------------------|
|-------7------------7---------7-----------|
|---0------0------0---------0--------------|


   +E  E  E      E  E     +E   E  E    +Q     E  E  Q       +Q
|-(15)15-15pb17-15-17b19r(17)-15----|-----------------------------||
|--------------------------------17-|-(17)---17-15-17b20---(17)\--||
|-----------------------------------|-----------------------------||
|-----------------------------------|-----------------------------||
|-----------------------------------|-----------------------------||
|-----------------------------------|-----------------------------||
|
|         PM----|          PM-|         PM    PM|        PM  ~~~~~
|   E  E  E      E  E      E   E  E     E  E  E  E  E    E   Q
|-----------------------------------|-----------------------------||
|-----------------------------------|-----------------------------||
|-----------------------------------|-----------------------------||
|-----------------------------------|-----------------------------||
|---5h=7------------7-------------7-|------7--------7--------5----||
|---------0------0---------0---0----|---0-----0--0-------0--------||


 O
             T                 T
                                           |--3--|
   S      S  S  S  S  S  S  S  S  S  S  S  E  E  E
|-----------------------------18p12----------------|
|-----------18p12h16p14-------------16p14----------|
|-----------------------12h16-------------12h16p12-|
|-12h====16----------------------------------------|
|--------------------------------------------------|
|--------------------------------------------------|
|
| Gtr II
|  \0.25____________________________________________
|  W
|--------------------------------------------------|
|--------------------------------------------------|
|--------------------------------------------------|
|--2-----------------------------------------------|
|--2-----------------------------------------------|
|--0-----------------------------------------------|


            T                 T                             T                 T
                                          |--3--|                                         |--3--|
   S     S  S  S  S  S  S  S  S  S  S  S  E  E  E    S   S  S  S  S  S  S  S  S  S  S  S  E  E  E
|----------------------------18p12----------------|--------------------------18p12----------------|
|----------18p12h16p14-------------16p14----------|--------18p12h16p14-------------16p14----------|
|----------------------12h16-------------12h16p12-|--------------------12h16-------------12h16p12-|
|-12h===16----------------------------------------|-12h=16----------------------------------------|
|-------------------------------------------------|-----------------------------------------------|
|-------------------------------------------------|-----------------------------------------------|
|
|  \0.5______________________________________________\1____________________________________________
| +W                                                +W
|-------------------------------------------------|-----------------------------------------------|
|-------------------------------------------------|-----------------------------------------------|
|-------------------------------------------------|-----------------------------------------------|
|-(2)---------------------------------------------|-(2)-------------------------------------------|
|-(2)---------------------------------------------|-(2)-------------------------------------------|
|-(0)---------------------------------------------|-(0)-------------------------------------------|


            T                 T
                                          |--3--|
   S     S  S  S  S  S  S  S  S  S  S  S  E  E  E
|----------------------------18p12----------------|
|----------18p12h16p14-------------16p14----------|
|----------------------12h16-------------12h16p12-|
|-12h===16----------------------------------------|
|-------------------------------------------------|
|-------------------------------------------------|
|
|  \1.5____________________________________________
|  W
|-------------------------------------------------|
|-------------------------------------------------|
|-------------------------------------------------|
|--2----------------------------------------------|
|--2----------------------------------------------|
|--0----------------------------------------------|


          T                 T                               T                 T
                                        |--3--|                                           |--3--|
   S   S  S  S  S  S  S  S  S  S  S  S  E  E  E    S     S  S  S  S  S  S  S  S  S  S  S  E  E  E
|--------------------------18p12----------------|----------------------------18p12----------------|
|--------18p12h16p14-------------16p14----------|----------18p12h16p14-------------16p14----------|
|--------------------12h16-------------12h16p12-|----------------------12h16-------------12h16p12-|
|-12h=16----------------------------------------|-12h===16----------------------------------------|
|-----------------------------------------------|-------------------------------------------------|
|-----------------------------------------------|-------------------------------------------------|
|
|  \2______________________________________________\2.5____________________________________________
| +W                                              +W
|-----------------------------------------------|-------------------------------------------------|
|-----------------------------------------------|-------------------------------------------------|
|-----------------------------------------------|-------------------------------------------------|
|-(2)-------------------------------------------|-(2)---------------------------------------------|
|-(2)-------------------------------------------|-(2)---------------------------------------------|
|-(0)-------------------------------------------|-(0)---------------------------------------------|


          T                 T
                                        |--3--|
   S   S  S  S  S  S  S  S  S  S  S  S  E  E  E
|--------------------------18p12----------------|
|--------18p12h16p14-------------16p14----------|
|--------------------12h16-------------12h16p12-|
|-12h=16----------------------------------------|
|-----------------------------------------------|
|-----------------------------------------------|
|
|  \3____________________________________________
|  W
|-----------------------------------------------|
|-----------------------------------------------|
|-----------------------------------------------|
|--2--------------------------------------------|
|--2--------------------------------------------|
|--0--------------------------------------------|


            T                 T
                                          |--3--|
   S     S  S  S  S  S  S  S  S  S  S  S  E  E  E
|----------------------------18p12----------------|
|----------18p12h16p14-------------16p14----------|
|----------------------12h16-------------12h16p12-|
|-12h===16----------------------------------------|
|-------------------------------------------------|
|-------------------------------------------------|
|
|  \3.5____________________________________________
| +W
|-------------------------------------------------|
|-------------------------------------------------|
|-------------------------------------------------|
|-(2)---------------------------------------------|
|-(2)---------------------------------------------|
|-(0)---------------------------------------------|


         T              T
                                 |-3--|
  S   S  S S  S S S  S  S S  S S E  E E
|----------------------12p7-------------|
|-------12p7h10p8-----------10p8--------|
|-----------------7h10-----------7h10p7-|
|-7h=10---------------------------------|
|---------------------------------------|
|---------------------------------------|
|
| \4_____________________________________
| W
|---------------------------------------|
|---------------------------------------|
|---------------------------------------|
|-2-------------------------------------|
|-2-------------------------------------|
|-0-------------------------------------|


            T              T
                                    |-3--|
   S     S  S S  S S S  S  S S  S S E  E E
|-------------------------12p7-------------|
|----------12p7h10p8-----------10p8--------|
|--------------------7h10-----------7h10p7-|
|--7h===10---------------------------------|
|------------------------------------------|
|------------------------------------------|
|
|  \4.5_____________________________________
| +W
|------------------------------------------|
|------------------------------------------|
|------------------------------------------|
|-(2)--------------------------------------|
|-(2)--------------------------------------|
|-(0)--------------------------------------|


          T              T
                                  |-3--|
   S   S  S S  S S S  S  S S  S S E  E E
|-----------------------12p7-------------|
|--------12p7h10p8-----------10p8--------|
|------------------7h10-----------7h10p7-|
|--7h=10---------------------------------|
|----------------------------------------|
|----------------------------------------|
|
|  \5_____________________________________
| +W
|----------------------------------------|
|----------------------------------------|
|----------------------------------------|
|-(2)------------------------------------|
|-(2)------------------------------------|
|-(0)------------------------------------|


          T              T
                                   |--3--|
   S   S  S S  S S S  S  S S  S S  E   E E
|-----------------------12p7---------------|
|--------12p7h10p8-----------10p8----------|
|------------------7h10------------7h=10p7-|
|--7h=10-----------------------------------|
|------------------------------------------|
|------------------------------------------|
|
|  \7                              |
| +H.                             +Q
|------------------------------------------|
|------------------------------------------|
|------------------------------------------|
|-(2)-----------------------------(x)------|
|-(2)-----------------------------(x)------|
|-(0)-----------------------------(x)------|


        T              T                       T              T
                                |-3--|                                 |-3--|
  S  S  S S  S S S  S  S S  S S E  E E   S  S  S S  S S S  S  S S  S S E  E E
|---------------------12p7-------------|---------------------12p7-------------|
|------12p7h10p8-----------10p8--------|------12p7h10p8-----------10p8--------|
|----------------7h10-----------7h10p7-|----------------7h10-----------7h10p7-|
|-7h10---------------------------------|-7h10---------------------------------|
|--------------------------------------|--------------------------------------|
|--------------------------------------|--------------------------------------|


         T                 T                 T
                                             |--3--|
   S  S  S  S  S  S  S  S  S  S  S  S  S  S  S  S  S
|-------18p12h16p13-------18p12h16p13-------18p12h16p|
|-------------------12h16-------------12h16----------|
|-12h16----------------------------------------------|
|----------------------------------------------------|
|----------------------------------------------------|
|----------------------------------------------------|
|
| Gtr IV
|        T                 T                 T
|                                            |--3--|
|  S  S  S  S  S  S  S  S  S  S  S  S  S  S  S  S  S
|-------12p=7h10p=7-------12p=7h10p=7-------12p=7h10p|
|--7h10--------------7h10--------------7h10----------|
|----------------------------------------------------|
|----------------------------------------------------|
|----------------------------------------------------|
|----------------------------------------------------|


                               D.S. al Coda
            T
         |--3--|
   S  S  S  S  S  S  S  E  Q   +E.     +S
|-13-------18p12h16p13----------------------||
|----12h16-------------12-15--(15)b17-(15)--||
|-------------------------------------------||
|-------------------------------------------||
|-------------------------------------------||
|-------------------------------------------||
|
|           T
|        |--3--|
|  S  S  S  S  S  S  S  E  Q   +E.      S
|--7-------12p=7h10p=7----------------------||
|-----7h10--------------7-10--(10)b12--10---||
|-------------------------------------------||
|-------------------------------------------||
|-------------------------------------------||
|-------------------------------------------||


 P
  &
                               ~~~
  E  E  E  E  S  E    S  E  a  E
|--------------------------------|
|---15-17-15---------------------|
|------------17s14p==12----------|
|-----------------------14-12h14-|
|--------------------------------|
|-0------------------------------|
|
| Gtr II
|       PM------------------------
| Q     E  E  E    E     E     E
|--------------------------------|
|--------------------------------|
|--------------------------------|
|-2------------------------------|
|-2------------------------------|
|-0-----0--0--0----0-----0-----0-|


 ~~~~~~                  ~~~
   +E     E  E  E  E  E  Q     E  E  E  E  S  E    S  E  E
|----------------------------|------------------------------|
|--------------------15-17---|---15-17-15-------------------|
|-----------12-14s16---------|------------17s14p==12--------|
|-(14)---14------------------|-----------------------14-14--|
|----------------------------|------------------------------|
|----------------------------|-0----------------------------|
|
|-|                                  PM-----------------|
|   E  a  E  E  E  E  E  Q     Q     E  E  E    E     E  E
|----------------------------|------------------------------|
|----------------------------|------------------------------|
|---------------------7--9\--|------------------------------|
|------------5h=7s=9---------|------------------------------|
|------5s=7------------------|------------------------------|
|---0------------------------|-0-----0--0--0----0-----0--0--|


   |------6-------|  |------6-------|  |------6------|  |--3--|
   S  S  S  S  S  S  S  S  S  S  S  S  S  S  S  S  S S  S  S  S S S
|-------------------------------------------------------------------|
|-------------------------------------------------------------------|
|-12-14-15-12-12-14-15-12S14-16-17-14S12-12-14-15-12S9-11-12-11-9-9h|
|-------------------------------------------------------------------|
|-------------------------------------------------------------------|
|-------------------------------------------------------------------|
|
|  PM                PM------|                  PM              PM
|  E        E        E        E        E        E       E       E
|-------------------------------------------------------------------|
|-------------------------------------------------------------------|
|-------------------------------------------------------------------|
|-----------2--------------------------2----------------2-----------|
|-----------2--------------------------2----------------2-----------|
|--0--------0--------0--------0--------0--------0-------0-------0---|


   |--3--|        |--3--|         |------6-------|
   S  S  S S   S  S  S  S S    S  S  S  S  S  S  S  E. S
|---------------------------------------------------------|
|--------------------------------------------------12\----|
|-11h12p11-9---9h11h12p11-9S==11h12h14p12p11h12h14-----9h=|
|---------------------------------------------------------|
|---------------------------------------------------------|
|---------------------------------------------------------|
|
|  |----3----|    |----3----|     |-----3-----|
|  E     E   E    E     E   E     E     E     E     Q
|---------------------------------------------------------|
|---------------------------------------------------------|
|---------------------------------------------------------|
|---------------------------------------------------------|
|---------------------------------------------------------|
|--0-----0---0----0-----0---0-----0-----0-----0-----------|


                                                             ~~     ~~       ~
   |--3--|        |--3--|         |------6-------|
   S  S  S S   S  S  S  S S    S  S  S  S  S  S  S  Q     E  Q   E  E  +E  E E
|------------------------------------------------------|-12-11-----------------|
|--------------------------------------------------12--|--------12-11-(11)S6-5-|
|-11h12p11-9---9h11h12p11-9S==11h12h14p12p11h12h14-----|-----------------------|
|------------------------------------------------------|-----------------------|
|------------------------------------------------------|-----------------------|
|------------------------------------------------------|-----------------------|
|
|                                                            ~~
|  |----3----|    |----3----|     |-----3-----|
|  E     E   E    E     E   E     E     E     E     Q     E  Q   E  Q      E E
|------------------------------------------------------|-----------------------|
|------------------------------------------------------|-----------------------|
|------------------------------------------------------|--9--8-----------------|
|------------------------------------------------------|---------9--8----------|
|------------------------------------------------------|-------------------8-7-|
|--0-----0---0----0-----0---0-----0-----0-----0--------|-----------------------|


   ~~~  ~
                        |----3----|
  +E  E Q  Q  Q     E E E   +E    E E E S S S S   S S S S S S S S E   +E  E E
|-----------------|-----------------------------|------------------------------|
|-(5)-------------|-----------------------------|------------------------------|
|-----------------|---7-7b8r(7)---4-------------|------------------------------|
|-----9-8--7--6\--|-----------------7-5---------|-----------------7b9r(7)-5----|
|-----------------|---------------------7-5h7-5h|=7p5h7p5h7p5h7p5-----------7--|
|-----------------|-0---------------------------|------------------------------|
|
|                       PM------|     PM|         PM      PM--|        PM ~
| +E  E Q  Q  Q     E E E       E   E E E   E     E   E   E   E   E    E  Q
|-----------------|-----------------------------|------------------------------|
|-----------------|-----------------------------|------------------------------|
|-----------------|-----------------------------|------------------------------|
|-----------------|-----------------------------|------------------------------|
|-(7)-------------|-5h7-------------7-------7---|-----7-----------7-------7----|
|-----7-6--5--4---|-----0-------0-----0-0-------|-0-------0---0--------0-------|


      |----3----|
  Q   E   +E    E E E a E E   S S S S Q   S S S S Q
|---------------------------|-4h5p4p0-----4h5p4p0----|
|-------------------------5-|---------5-----------5--|
|-----7b8r(7)---4-----4s7---|------------------------|
|-----------------7-5-------|------------------------|
|-x-------------------------|------------------------|
|---------------------------|------------------------|
|
|     PM------|     PM--|     PM      PM|     PM  ~
| E E E       E   E E   E E   E   E   E E E   E   Q
|---------------------------|------------------------|
|---------------------------|------------------------|
|---------------------------|------------------------|
|---------------------------|------------------------|
|-5h7-------------7-------7-|-----7-------7-------5--|
|-----0-------0-----0---0---|-0-------0-0-----0------|


  S S S S S S S S S S S S S S E   S S S S S S S S S S S S S S E
|---6h7p0-3p0-6h7---0h3p0-6h7---|---------5p0---------5p0--------|
|-0---------------------------8S|=0h6h7p0-----0h6h7p0-----6p0-3S=|
|-------------------------------|--------------------------------|
|-------------------------------|--------------------------------|
|-------------------------------|--------------------------------|
|-------------------------------|--------------------------------|
|
|         PM--|       PM--|       PM      PM--|       PM  ~~
| E   E   E   E   E   E   E   E   E   E   E   E   E   E   Q
|-------------------------------|--------------------------------|
|-------------------------------|--------------------------------|
|-------------------------------|--------------------------------|
|-------------------------------|--------------------------------|
|-5h==7-----------7-----------7-|-----7-----------7-------7------|
|---------0---0-------0---0-----|-0-------0---0-------0----------|


  S S S S S S S S S S S S S S E   E E E E Q     +E  +E
|---6h7p0-3p0-6h7---0h3p0-6h7---|-----------------------||
|-0---------------------------8S|=x-x-x-x---------------||
|-------------------------------|-x-x-x-x---------------||
|-------------------------------|-x-x-x-x---------------||
|-------------------------------|-x-x-x-x---------------||
|-------------------------------|---------3b5===(3)r(3)-||
|
|         PM--|       PM--|
| E   E   E   E   E   E   E   E   E E E E Q     +E  +E
|-------------------------------|-----------------------||
|-------------------------------|-----------------------||
|-------------------------------|-x-x-x-x---------------||
|-------------------------------|-x-x-x-x---------------||
|-5h==7-----------7-----------7-|-x-x-x-x---------------||
|---------0---0-------0---0-----|-x-x-x-x-3b5===(3)r(3)-||


 Q
  E E E E E E E E   E E E E E E E  E
|-----------------|------------------|
|-----------------|------------------|
|-9-9-9S8-8-8S7-7-|-7S6-6-6----------|
|-----------------|---------9s7-7----|
|-7-7-7S6-6-6S5-5-|-5S4-4-4----------|
|-----------------|---------7s5-5----|
|
| PM----------------------|
| E E E E E E E E   E E E E E E Q
|-----------------|------------------|
|-----------------|------------------|
|-----------------|---------7s9-7\---|
|-----------------|---------7-7-7\---|
|-2-5-5-6-6-6-7-7-|-7-8-8-0-5s7-5\---|
|-0-3-3-4-4-4-5-5-|-5-6-6-0----------|


  E E E E E E E E   E E E E E E E   E
|-----------------|--------------------------|
|-----------------|--------------------------|
|-9-9-9S8-8-8S7-7-|-7S6-6-6------------------|
|-----------------|---------9s7-7------------|
|-7-7-7S6-6-6S5-5-|-5S4-4-4------------------|
|-----------------|---------7s5-5------------|
|
| Gtr IV
|                                   |--3--|
| W                 H.          E   S  S  S
|-----------------|--------------------------|
|-----------------|--------------------------|
|-----------------|----------------------12h=|
|-----------------|-------------------14-----|
|-----------------|----------------14--------|
|-----------------|--------------------------|
|
| Gtr II
| PM----------------------|
| E E E E E E E E   E E E E E E Q
|-----------------|--------------------------|
|-----------------|--------------------------|
|-----------------|---------7s9-7\-----------|
|-----------------|---------7-7-7\-----------|
|-2-5-5-6-6-6-7-7-|-7-8-8-0-5s7-5\-----------|
|-0-3-3-4-4-4-5-5-|-5-6-6-0------------------|


   Q.                             Q.                      Q
|-----------------------------------------------------------------|
|-----------------------------------------------------------------|
|--9------------------------------9-----------------------9-------|
|-----------------------------------------------------------------|
|-----------------------------------------------------------------|
|-----------------------------------------------------------------|
|
|      T                                T
|                        |--3--|        |--3--|
|  S   S  T  T  T  T  S  T  T  T  S  S  S  S  S  S  S  a  Q
|--------------------------------12h15-17p15p14p13p12-14s20b22====|
|-----------------------------12----------------------------------|
|-15--17p15p14p13p12-------12-------------------------------------|
|--------------------15-15----------------------------------------|
|-----------------------------------------------------------------|
|-----------------------------------------------------------------|
|
|  E      E           E           E     E        E        E     E
|-----------------------------------------------------------------|
|-----------------------------------------------------------------|
|-----------------------------------------------------------------|
|-----------------------------------------------------------------|
|--2------5-----------5-----------6-----6--------6--------7-----7-|
|--0------3-----------3-----------4-----4--------4--------5-----5-|


   +E      Q.      E E Q
|------------------------------------|
|------------------------------------|
|--(9)-----9-------7s9-9\------------|
|------------------------------------|
|------------------------------------|
|------------------------------------|
|
|          ~~~
|                          |--3--|
|  +S   S  Q.      Q   E   S  S  S
|-(20)r20----------------------------|
|---------18------17\----------------|
|-------------------------------12h==|
|----------------------------14------|
|-------------------------14---------|
|------------------------------------|
|
|   E      E  E E  E E Q
|------------------------------------|
|------------------------------------|
|------------------7s9-7\------------|
|---------------0--7-7-7\------------|
|---7------8--8-0--5s7-5\------------|
|---5------6--6-0--------------------|


   Q.                             Q.                      Q
|-----------------------------------------------------------------|
|-----------------------------------------------------------------|
|--9------------------------------9-----------------------9-------|
|-----------------------------------------------------------------|
|-----------------------------------------------------------------|
|-----------------------------------------------------------------|
|
|      T                                T
|                        |--3--|        |--3--|
|  S   S  T  T  T  T  S  T  T  T  S  S  S  S  S  S  S  a  Q
|--------------------------------12h15-17p15p14p13p12-14s20b22====|
|-----------------------------12----------------------------------|
|-15--17p15p14p13p12-------12-------------------------------------|
|--------------------15-15----------------------------------------|
|-----------------------------------------------------------------|
|-----------------------------------------------------------------|
|
|  E      E           E           E     E        E        E     E
|-----------------------------------------------------------------|
|-----------------------------------------------------------------|
|-----------------------------------------------------------------|
|-----------------------------------------------------------------|
|--2------5-----------5-----------6-----6--------6--------7-----7-|
|--0------3-----------3-----------4-----4--------4--------5-----5-|


   +E      Q.      E E   Q       W           W
|------------------------------|----------|--------*|
|------------------------------|----------|--------*|
|--(9)-----9-------7s9---9\----|----------|--------*|
|------------------------------|----------|--------*|
|------------------------------|----------|--------*|
|------------------------------|----------|--------*|
|
|          ~~~
|  +S   S  Q.      Q    +E   E   W           W
|-(20)r20----------------------|----------|--------*|
|---------18------17---(17)\---|----------|--------*|
|------------------------------|----------|--------*|
|------------------------------|----------|--------*|
|------------------------------|----------|--------*|
|------------------------------|----------|--------*|
|
|   E      E  E E  E E   Q       W          +W
|------------------------------|----------|--------*|
|------------------------------|----------|--------*|
|------------------7s9---7\----|----------|--------*|
|---------------0--7-7---7\----|-2--------|-(2)----*|
|---7------8--8-0--5s7---5\----|-2--------|-(2)----*|
|---5------6--6-0--------------|-0--------|-(0)----*|



Duration Legend
---------------
W - whole; H - half; Q - quarter; E - 8th; S - 16th; T - 32nd; X - 64th; a - acciaccatura
+ - note tied to previous; . - note dotted; .. - note double dotted
Uncapitalized letters represent notes that are staccato (1/2 duration)
Irregular groupings are notated above the duration line
Duration letters will always appear directly above the note/fret number it represents the
duration for.  Duration letters with no fret number below them represent rests.  Multi-
bar rests are notated in the form Wxn, where n is the number of bars to rest for.  Low
melody durations appear below the staff

Tablature Legend
----------------
 h   - hammer-on
 p   - pull-off
 b   - bend
 pb  - pre-bend
 r   - bend release (if no number after the r, then release immediately)
 /\  - slide into or out of (from/to "nowhere")
 s   - legato slide
 S   - shift slide
 - natural harmonic
[n]  - artificial harmonic
n(n) - tapped harmonic
 ~   - vibrato
 tr  - trill
 T   - tap
 TP  - trem. picking
 PM  - palm muting
\n/  - tremolo bar dip; n = amount to dip
 \n  - tremolo bar down
 n/  - tremolo bar up
/n\  - tremolo bar inverted dip
 =   - hold bend; also acts as connecting device for hammers/pulls
 <> - volume swell (louder/softer)
 x   - on rhythm slash represents muted slash
 o   - on rhythm slash represents single note slash

Misc Legend
-----------
 |  - bar
||  - double bar
||o - repeat start
o|| - repeat end
*|  - double bar (ending)
 :  - bar (freetime)
 $  - Segno
 &  - Coda
Tempo markers -  = BPM(8/16=s8/s16), where s8 = swing 8ths, s16 = swing 16ths

Tap to rate this tab
# A B C D E F G H I J K L M N O P Q R S T U V W X Y Z