Song name
# A B C D E F G H I J K L M N O P Q R S T U V W X Y Z

John 5 - July 31st The Last Stand tab

I found his on another site but Im gonna post it anyways.

Intro/Verses/Outro

Guitar 1 - (played throughout intro/verse)
E-2----2------|
B---4-----4---|
G-------------|
D-------------|
A-------------|
E-------------|

Guitar 2

E-2--2--2--2--|
B--4--4--4--4-|
G-------------|
D-------------|
A-------------|
E-------------|


Guitar 1 - (played throughout intro/verse)
E-0----0------|
B---2-----2---|
G-------------|
D-------------|
A-------------|
E-------------|

Guitar 2
E-0--0--0--0--|
B--2--2--2--2-|
G-------------|
D-------------|
A-------------|
E-------------|


Guitar 2 - (This replaces the part above and it is picked in certain places)
E--6---|
B--7---|
G--8---|
D------|
A------|
E------|

E--4---|
B--5---|
G--6---|
D------|
A------|
E------|


Chorus 1 - (1:12)

Guitar 1 - (Rythm)
E------------------------------|
B------------------------------|
G---------11--8----------------|
D-8--11--11--8---8--11--10-----|
A-8--11--9---6---8--11--10-----|
E-6--9------------6---9---8----|

Guitar 2 - (Lead)
E-----------------------|
B-----------13-----14---|
G-15-15-15-15--15-------|
D-----------------------| X2
A-----------------------|
E-----------------------|

E--------------------------------------------|
B-----------13-----14--16--13--13-b-(14)-13--|
G-15-15-15-15--15-15-------------------------|
D--------------------------------------------|
A--------------------------------------------|
E--------------------------------------------|

Chorus 2 - (2:20)

Guitar 1 - (Rythm)
E------------------------------|
B------------------------------|
G---------11--8----------------|
D-8--11--11--8---8--11--10-----|
A-8--11--9---6---8--11--10-----|
E-6--9------------6---9---8----|


Guitar 2 - (Lead)
E-----------------------------------------------------|
B-----------13-----14--------------13--14-b-(16)-14---|
G-15-15-15-15--15-------15-15-15-15-------------------|
D-----------------------------------------------------|
A-----------------------------------------------------|
E-----------------------------------------------------|

E--------------------------------|
B-----------13-----14--16--13----|
G-15-15-15-15--15-15-------------|
D--------------------------------|
A--------------------------------|
E--------------------------------|


(2:48)
E------------------------------|
B----14----14--13--------------|
G-15----15--------15-----------|
D------------------------------| x2
A------------------------------|
E------------------------------|

E------------------------------------------|
B----14----14--13-----16--14----14--13-----|
G-15----15--------15---------15---------15-|
D------------------------------------------|
A------------------------------------------|
E------------------------------------------|


(2:56)
E-------------------------------------------------------|
B----14----14--13--------------------13-----------------|
G-15----15--------15--13--13-s-15-s-10--13-s-20-s-22----|
D-------------------------------------------------------|
A-------------------------------------------------------|
E-------------------------------------------------------|

This is a riff that appears in the background
E---------------------------------|
B-18----16--18---18----16--18--19-|
G----15-------------15------------|
D---------------------------------|
A---------------------------------|
E---------------------------------|

E------------------------------------------|
B----14----14--13-----16--14----14--13-----|
G-15----15--------15---------15---------15-|
D------------------------------------------| x2
A------------------------------------------|
E------------------------------------------|

E---------------------16--14--13-----------|
B----14----14--13--------------------------|
G-15----15--------15-----------------------|
D------------------------------------------|
A------------------------------------------|
E------------------------------------------|
Tap to rate this tab
 
# A B C D E F G H I J K L M N O P Q R S T U V W X Y Z