Song name
# A B C D E F G H I J K L M N O P Q R S T U V W X Y Z

John 5 - Heretics Fork tab

-------------------------|-------------------------|
-------------------------|-------------------------|
-------------------------|-------------------------|
-------------------------|-------------------------|
-3--5-5/6--5--3--0--0--3-|-0--0--3--0--3--0--5b----|
-3--5-5/6--5--3--0--0--3-|-0--0--3--0--3--0--5b----|
                 .  .      .  .     .     .

-------------------------|-------------------------|
-------------------------|-------------------------|
-------------------------|-------------------------|
-------------------------|-------------------------|
-3--5-5/6--5--3--0--0--3-|-0--0--3--0--3--0--1-----|
-3--5-5/6--5--3--0--0--3-|-0--0--3--0--3--0--1-----|
                 .  .      .  .     .     .


                                 ph  ph    ph 

|------------------------------|------------------------------|
|-13h15---13\10----------------|------------------------------|
|----------------12-10b-----10-|-13~-13~---13--12--10---------|
|------------------------12----|-----------------------12--10-|
|------------------------------|------------------------------|
|------------------------------|------------------------------|
|                                                             |
|                                                             |
|                                                             |
|------------------------------|------------------------------|
|------------------------------|------------------------------|
|------------------------------|------------------------------|
|------------------------------|------------------------------|
|--1--0-----0---0---0-------0--|--1--0-----0---0---0-------0--|
|--1--0-----0---0---0-------0--|--1--0-----0---0---0-------0--|
            .   .   .       .              .   .   .       .



|-10h12h13p12p10---------------10h12h13p12-10-10----------------------|
|----------------13p12-10h12h13------------------13p12p10-------------|
|---------------------------------------------------------13p12p10----|
|------------------------------------------------------------------12-|
|---------------------------------------------------------------------|
|---------------------------------------------------------------------|
|
|
|
|------------------------------|------------------------------|
|------------------------------|------------------------------|
|------------------------------|------------------------------|
|------------------------------|------------------------------|
|--1--0-----0---0---0-------0--|--1--0-----0---0---0-------0--|
|--1--0-----0---0---0-------0--|--1--0-----0---0---0-------0--|

Tap to rate this tab
# A B C D E F G H I J K L M N O P Q R S T U V W X Y Z