Guitaretab - guitar tabs
Song name
# A B C D E F G H I J K L M N O P Q R S T U V W X Y Z

John 5 - Gods And Monsters tab

-------------------------------------------------------------------------------
			     "Gods And Monsters" --- John 5
-------------------------------------------------------------------------------


				Tabbed by: [travis]



Tuning: Drop D === D A D G B E (low to high)




Key: G Major === G A B C D E F#




****There's not a single tab of this song on this site. Hope you like this tab.



****For the heavy beat in the beginning of the song, John is using
    a guitar synthesizer pedal, or what you probably know it as a
    modulation pedal. A "Moog" pedal could also work as well.



Legend:

... = palm mute
h = hammer on
p = pull off
b = bend
.5 = half step
1 = whole step
1.5 = step and half
2 = two steps
" = pinch harmonic
__ = hold bend
() = bent note back to normal / note not picked
/ = slide up
\ = slide down
h/ = pick first note only, then slide
p\ = pick first note only, then slide
~ = vibrato / ring
T = tap
! = tremelo pick
* = harmonic
w = whammy bar
+ = pull whammy bar up
- = push down on whammy bar
x/x/ = pickslide up
x\x\ = pickslide down


==================================
Intro:

Guitar 1:
                                       -.5__________________________
e|-12*~~~~~~~~~~12*~~~~~~~~~~~~~~~~~~(12)w~~~~~~~~~~12*~~~~~~~~~~~~~(12)~~~~~~~~~~~~|
B|----------------------------------------------------------------------------------|
G|----------------------------------------------------------------------------------|
D|----------------------------------------------------------------------------------|
A|----------------------------------------------------------------------------------|
D|----------------------------------------------------------------------------------|

Guitar 1:
    -.5______________-1.5________________-3______________
e|-12*w~~~~~~~~~~~~~(12)w~~~~~~~~~~~~~(12)w~~~~~~~~~~~~~~------|
B|-------------------------------------------------------------|
G|-------------------------------------------------------------|
D|-------------------------------------------------------------|
A|-------------------------------------------------------------|
D|-------------------------------------------------------------|

==================================
Guitar 2: use an octave pedal set at an octave below, and use a modulation pedal.
e|---------------5*~~~----5*~~~----5*~~~-------------5*~~~----5*~~~----5*-|
B|------------------------------------------------------------------------|
G|------------------------------------------------------------------------|
D|------------------------------------------------------------------------| x2
A|------------------------------------------------------------------------|
D|-00000000-0-0-------0-0------0-0------00000000-0-0------0-0------0-0----|
   ............       ...      ...      ............      ...      ...

Guitar 1: This comes in near the end of Guitar 2's 2nd time.
                                       -.5__________________________
e|-12*~~~~~~~~~~12*~~~~~~~~~~~~~~~~~~(12)w~~~~~~~~~~12*~~~~~~~~~~~~~(12)~~~~~~~~~~~~|
B|----------------------------------------------------------------------------------|
G|----------------------------------------------------------------------------------|
D|----------------------------------------------------------------------------------|
A|----------------------------------------------------------------------------------|
D|----------------------------------------------------------------------------------|

===================================
Guitar 3:
               x2                                   x2
e|-7p0---0-7p0---0-7p0---0-7p0---0-|-6p0---0-6p0---0-6p0---0-6p0---0-|
B|-----8-------8-------8-------8---|-----8-------8-------8-------8---|
G|---------------------------------|---------------------------------|
D|---------------------------------|---------------------------------|
A|---------------------------------|---------------------------------|
D|---------------------------------|---------------------------------|

Guitar 2:
e|---------------------------------------------------------------------------|
B|-20~~~~~~~~~17~~~~~~~~20~~~~~~~~~~17~~~~~~~~19~~~~17~~~~~16~~~~~~~~~~~~~~~~|
G|---------------------------------------------------------------------------|
D|---------------------------------------------------------------------------|
A|---------------------------------------------------------------------------|
D|---------------------------------------------------------------------------|

Guitar 1:
    -.5______________-1.5________________-3______________
e|-12*w~~~~~~~~~~~~~(12)w~~~~~~~~~~~~~(12)w~~~~~~~~~~~~~~------|
B|-------------------------------------------------------------|
G|-------------------------------------------------------------|
D|-------------------------------------------------------------|
A|-------------------------------------------------------------|
D|-------------------------------------------------------------|

====================================
Guitar 3:
e|-7p0---0-7p0---0-7p0---0-7p0---0-10p0---0-7p0---0-10p0---0-7p0---0-|
B|-----8-------8-------8-------8--------8-------8--------8-------8---|
G|-------------------------------------------------------------------|
D|-------------------------------------------------------------------|
A|-------------------------------------------------------------------|
D|-------------------------------------------------------------------|

Guitar 2:
e|---------------------------------------------------------|
B|-20~~~~~~~~~17~~~~~~~~20~~~~~~~~~~17~~~~~~~~19~~~~17~~~~~|
G|---------------------------------------------------------|
D|---------------------------------------------------------|
A|---------------------------------------------------------|
D|---------------------------------------------------------|

=====================================
Guitar 3:
e|-6p0---0-6p0---0-6p0---0-6p0---0-6p0---0-6p0---0-6p0---0-6p0---0~~~~|
B|-----8-------8-------8-------8-------8-------8-------8-------8------|
G|--------------------------------------------------------------------|
D|--------------------------------------------------------------------|
A|--------------------------------------------------------------------|
D|--------------------------------------------------------------------|

Guitar 2:
e|-----------------------------|
B|-16~~~~~~~~~~~~~~~~~~~~~~~~~~|
G|-----------------------------|
D|-----------------------------|
A|-----------------------------|
D|-----------------------------|

=====================================
Guitar 2:
e|---------------5*~~~----5*~~~----5*~~~-------------5*~~~----5*~~~----5*-|
B|------------------------------------------------------------------------|
G|------------------------------------------------------------------------|
D|------------------------------------------------------------------------| x2
A|------------------------------------------------------------------------|
D|-00000000-0-0-------0-0------0-0------00000000-0-0------0-0------0-0----|
   ............       ...      ...      ............      ...      ...

Guitar 3: Octave pedal set at octave below.
e|-----------------------------------------------------------------------------------------------|
B|-----------------------------------------------------------------------------------------------|
G|-----------------------------------------------------------------------------------------------|
D|-----------------------------------------------------------------------------------------------|
A|------------------------------------------x/x/--------------------------------------------x/x/-|
D|-11-11-11-12-12-12-----11-11-11-12-12-12--x/x/---11-11-11-12-12-12-----11-11-11-12-12-12--x/x/-|

====================================
Guitar 3:
                 x2                                     x2
e|-12p0---0-12p0---0-12p0---0-12p0---0-|-11p0---0-11p0---0-11p0---0-11p0---0-|
B|------8--------8--------8--------8---|------8--------8--------8--------8---|
G|-------------------------------------|-------------------------------------|
D|-------------------------------------|-------------------------------------| x2
A|-------------------------------------|-------------------------------------|
D|-------------------------------------|-------------------------------------|

Guitar 2:
e|---------------------------------------------------------------------------|
B|-20~~~~~~~~~17~~~~~~~~20~~~~~~~~~~17~~~~~~~~19~~~~17~~~~~16~~~~~~~~~~~~~~~~|
G|---------------------------------------------------------------------------|
D|---------------------------------------------------------------------------|x2
A|---------------------------------------------------------------------------|
D|---------------------------------------------------------------------------|

====================================
Guitar 3:
e|---------------------------------|
B|---------------------------------|
G|-----------------------------10~~|
D|-----------------------------10~~| x6
A|-5-7-8\3-5-6\5-6-8/9\8-6-5---8~~~|
D|---------------------------------|

Guitar 4: use extremely heavy chorus. (This comes in on the 5th time of Guitar 3.)
e|--------18-----17----18----------18----17-------|
B|-15------------------------15----------------16-|
G|------------------------------------------------|
D|------------------------------------------------|
A|------------------------------------------------|
D|------------------------------------------------|

====================================
Guitar 3:
                                      -5______
e|--------------------------------------------|
B|--------------------------------------------|
G|-----------------------------10~~(10)w~~~~~~|
D|-----------------------------10~~(10)w~~~~~~|
A|-5-7-8\3-5-6\5-6-8/9\8-6-5---8~~~~(8)w~~~~~~|
D|--------------------------------------------|

Guitar 4:
                                   2______________
e|-------18----17----18~~~~~~~~(18)b~~~~~~~~~~~~~~|
B|-15---------------------------------------------|
G|------------------------------------------------|
D|------------------------------------------------|
A|------------------------------------------------|
D|------------------------------------------------|

====================================
Guitar 2:
e|---------------5*~~~----5*~~~----5*~~~-------------5*~~~----5*~~~----5*-|
B|------------------------------------------------------------------------|
G|------------------------------------------------------------------------|
D|------------------------------------------------------------------------|
A|------------------------------------------------------------------------|
D|-00000000-0-0-------0-0------0-0------00000000-0-0------0-0------0-0----|
   ............       ...      ...      ............      ...      ...

Guitar 3:
e|----------------------------------|
B|----------------------------------|
G|----------------------------------|
D|----------------------------------|
A|-x/x/----------------------x/x/---|
D|-x/x/----------------------x/x/---|

=====================================
Guitar 3:
e|-15-12-------------17-12-------------15-12-------------17-12-------------15-12-------------|
B|-------13-12-13-12-------13-12-13-12-------13-12-13-12-------13-12-13-12-------13-12-13-12-|
G|-------------------------------------------------------------------------------------------|
D|-------------------------------------------------------------------------------------------|
A|-------------------------------------------------------------------------------------------|
D|-------------------------------------------------------------------------------------------|

Guitar 3:
e|-17-12-------------15-12-------------14-------------15-12-------------17-12-------------|
B|-------13-12-13-12-------13-12-13-12----13-12-13-12-------13-12-13-12-------13-12-13-12-|
G|----------------------------------------------------------------------------------------|
D|----------------------------------------------------------------------------------------|
A|----------------------------------------------------------------------------------------|
D|----------------------------------------------------------------------------------------|

Guitar 3:
e|-15-12-------------17-12-------------15-12-------------17-12-------------15-12-------------|
B|-------13-12-13-12-------13-12-13-12-------13-12-13-12-------13-12-13-12-------13-12-13-12-|
G|-------------------------------------------------------------------------------------------|
D|-------------------------------------------------------------------------------------------|
A|-------------------------------------------------------------------------------------------|
D|-------------------------------------------------------------------------------------------|
[ Tab from: http://www.guitaretab.com/j/john-5/217428.html ]
-14-12-------------|
-------13-12-13-12-|
-------------------|
-------------------|
-------------------|
-------------------|

====================================
Guitar 3:
e|-15-12-------------17-12-------------15-12-------------17-12-------------15-12-------------|
B|-------13-12-13-12-------13-12-13-12-------13-12-13-12-------13-12-13-12-------13-12-13-12-|
G|-------------------------------------------------------------------------------------------|
D|-------------------------------------------------------------------------------------------|
A|-------------------------------------------------------------------------------------------|
D|-------------------------------------------------------------------------------------------|

Guitar 3:
e|-17-12-------------15-12-------------14-------------15-12-------------17-12-------------|
B|-------13-12-13-12-------13-12-13-12----13-12-13-12-------13-12-13-12-------13-12-13-12-|
G|----------------------------------------------------------------------------------------|
D|----------------------------------------------------------------------------------------|
A|----------------------------------------------------------------------------------------|
D|----------------------------------------------------------------------------------------|

Guitar 3:
e|-15-12-------------17-12-------------15-12-------------17-12-------------15-12-------------|
B|-------13-12-13-12-------13-12-13-12-------13-12-13-12-------13-12-13-12-------13-12-13-12-|
G|-------------------------------------------------------------------------------------------|
D|-------------------------------------------------------------------------------------------|
A|-------------------------------------------------------------------------------------------|
D|-------------------------------------------------------------------------------------------|

-14-12-------------|
-------13-12-13-12-|
-------------------|
-------------------|
-------------------|
-------------------|

Guitar 4:
    -2________-.5______-2__________-2_________-1________ -5_____________
e|-5*w~~~~~~~~--------------------5*w~~~~~~~~-----------5*w~~~~~~~~~~~~~|
B|------------5*w~~~~(5)w~~~~~~~~~-----------5*w~~~~~~~~----------------|
G|----------------------------------------------------------------------|
D|----------------------------------------------------------------------|
A|----------------------------------------------------------------------|
D|----------------------------------------------------------------------|

==================================
Guitar 5: use a Tape Echo efffect.
   -5______+2
e|--------------|
B|--------------|
G|--------------|
D|-0w----(0)w---|
A|-0w----(0)w---|
D|-0w----(0)w---|

===================================
Guitar 3:
e|---------------------------------|
B|---------------------------------|
G|-----------------------------10~~|
D|-----------------------------10~~| x6
A|-5-7-8\3-5-6\5-6-8/9\8-6-5---8~~~|
D|---------------------------------|

Guitar 4: use extremely heavy chorus. (This comes in on the 5th time of Guitar 3.)
e|--------18-----17----18----------18----17-------|
B|-15------------------------15----------------16-|
G|------------------------------------------------|
D|------------------------------------------------|
A|------------------------------------------------|
D|------------------------------------------------|

====================================
Guitar 3:
                                      -5______
e|--------------------------------------------|
B|--------------------------------------------|
G|-----------------------------10~~(10)w~~~~~~|
D|-----------------------------10~~(10)w~~~~~~|
A|-5-7-8\3-5-6\5-6-8/9\8-6-5---8~~~~(8)w~~~~~~|
D|--------------------------------------------|

Guitar 4:
                                   2______________
e|-------18----17----18~~~~~~~~(18)b~~~~~~~~~~~~~~|
B|-15---------------------------------------------|
G|------------------------------------------------|
D|------------------------------------------------|
A|------------------------------------------------|
D|------------------------------------------------|

=====================================
Interlude:

Guitar 3: Heavy chorus.
e|-------------------------------------------------------------------|
B|---------------------11---------------8~~~8------------------------|
G|-12--12-12-12-12-12------12--10--9--9-------10--7--7-10~~~10-9"~~~-|
D|-------------------------------------------------------------------| x4
A|-------------------------------------------------------------------|
D|-------------------------------------------------------------------|

Guitar 4: Heavy chours (Comes in on 3rd time of Guitar 3).
e|-15--15-15-15-15-15--18--15-------------15~~15------------------------|
B|-----------------------------18--17--17---------18--15--15-18~~18--17-|
G|----------------------------------------------------------------------|
D|----------------------------------------------------------------------| x2
A|----------------------------------------------------------------------|
D|----------------------------------------------------------------------|

Guitar 2:
e|---------------5*~~~----5*~~~----5*~~~-------------5*~~~----5*~~~----5*-|
B|------------------------------------------------------------------------|
G|------------------------------------------------------------------------|
D|------------------------------------------------------------------------| x3
A|------------------------------------------------------------------------|
D|-00000000-0-0-------0-0------0-0------00000000-0-0------0-0------0-0----|
   ............       ...      ...      ............      ...      ...

=====================================
Guitar 2: Rhythm For Solo.
e|-----------------------|
B|-----------------------|
G|-----------------------|
D|-------------------3---| x16
A|-------------------3---|
D|-000000000000-0----3---|
   ..............

Guitar 3: Comes in on the 2nd time of Guitar 2.
e|--------------------------------12-13-12------------------------------------------------|
B|---10-12-13-11-12-13-15-12h13-15--------15-13-11----------------------------------------|
G|-10---------------------------------------------14-10-12-14-10--11-12--11-13-14-13-11---|
D|--------------------------------------------------------------14-----14--------------14-|
A|----------------------------------------------------------------------------------------|
D|----------------------------------------------------------------------------------------|

Guitar 3:
e|--------------------------------------------5h7h8p7p5-------------------------|
B|-----------------------------------5h7h8p7p5---------8p7p5--------------------|
G|-9-8\5h7h8p7p5/7h9h10p9p7\5h7h8p7p5-----------------------8p7p5-5-5-7~~~~7--5-|
D|------------------------------------------------------------------------------|
A|------------------------------------------------------------------------------|
D|------------------------------------------------------------------------------|

Guitar 3:
e|-5-5-5-5--4~~~~----------------------------------------------10h12h13p12p10---------|
B|---------------5h6p5---------------------------------------10--------------13p12p10-|
G|--------------------7-5-4h5p4----------------------------12-------------------------|
D|-----------------------------7-5-4h5p4--------------12/13---------------------------|
A|--------------------------------------7-5---------12--------------------------------|
D|------------------------------------------5~~~~~10----------------------------------|
                      ...      ...      ...

Guitar 3:
                                                    1____        1______
e|--------------------------------------------------------------------------|
B|-------------------------------10--------10-------------------------------|
G|-12p11p10----------------------10--------10-------------------------------|
D|---------12p11p10-----------12----12-12------12\-9b~~~~(9)p7\-------------|
A|-----------------12p11p10p8-----------------------------------------------|
D|--------------------------------------------------------------3b~~~~~~(3)-|
                              ..    .....      

Guitar 3:
e|--------------------------------------------------------------------------------------------|
B|--------------------------------------------------------------------------------------------|
G|--------------------------------------------------------------------------------------------|
D|------5h7h8p7p5------------7h9h10p9p7---------------10h12h13p12p10-----------------10h12h13-|
A|-5h7h8---------8p7p5/7h9h10----------10p9p7-10h12h13--------------13p12p10-10h12h13---------|
D|--------------------------------------------------------------------------------------------|

Guitar 3:
                                            1___
e|-----------------10h12h13p12p10-------------------------------------------|
B|---------10h12h13--------------13p12p10-13b~~~(13)/14h15p14h15------------|
G|-10h12h13-----------------------------------------------------13h14p13h14-|
D|--------------------------------------------------------------------------|
A|--------------------------------------------------------------------------|
D|--------------------------------------------------------------------------|

Guitar 3:
                                            .5__ .5__  1__
                                            .5__ .5__  1__
e|----------------------------------------------------------------|
B|-----------------------------------------10b~~-9b~~-7b~~--------|
G|------------11h12p11h12------------------10b~~-9b~~-7b~~--------|
D|-12h13p12h13-----------10h11p10h11p10h11------------------------|
A|----------------------------------------------------------------|
D|---------------------------------------------------------20p\\\-|

Guitar 3:
e|------------------------------------------------------------------------------------------|
B|------------------------------------------------------------------------------------------|
G|------------------------------------------------------------------------------------------|
D|------------------------------------------------------------------------------------------|
A|-5h7h8p7p5/8h10h11p10p8\5h7h8p7p5/8h10h11p10p8/10h12h13p12p10\8h10h11p10p8/10h12h13p12p10\|
D|------------------------------------------------------------------------------------------|

Guitar 3:
e|---------------------------------------------------------------------------------------------|
B|---------------------------------------------------------------------------------------------|
G|---------------------------------------------------------------------------------------------|
D|----------------------------------------------------10h12h13p12p10\7h9h10p9p7\5h7h8p7p5------|
A|-8h10h11p10p8/10h12h13p12p10\12h14h15p14p12\10h12h13-----------------------------------8p7p5-|
D|---------------------------------------------------------------------------------------------|

Guitar 3:
                  1_____.5__________         1_______.5_________________
e|----------------------------------------------------------------------|
B|----------------------------------------------------------------------|
G|----------------------------------------------------------------------|
D|---------------5b"~~~~~5~~~~~~~~~~--------5b"~~~~~~~5~~~~~~~~~~~~~~~~~|
A|-3~~~~5--3~~~5--------------------3h5p3-5-----------------------------|
D|----------------------------------------------------------------------|

End of Solo.
===========================
Guitar 1:
                            -1__________________               -1____________________-2___________
e|-12*~~~~~~~~~~~~~~~~~~~(12)w~~~~~~~~~~~~~~~~~~(12)~~~~~~~~~~(12)w~~~~~~~~~~~~~~~~~(12w)~~~~~|
B|--------------------------------------------------------------------------------------------|
G|--------------------------------------------------------------------------------------------|
D|--------------------------------------------------------------------------------------------|
A|--------------------------------------------------------------------------------------------|
D|--------------------------------------------------------------------------------------------|

Guitar 2:
e|---------------------------------------------------------------------|
B|-20~~~~~~~~17~~~~~~~~20~~~~~~17~~~~~~~~19---20---16~~~~~~~~~~~~~~~~~~|
G|---------------------------------------------------------------------|
D|---------------------------------------------------------------------| x2
A|---------------------------------------------------------------------|
D|---------------------------------------------------------------------|


Please Rate And Comment My Tab.
Thanks Everyone.
[travis]
Related for Gods And Monsters tab
×
Best way to learn
"Gods And Monsters"