John 5 - Can I Live Again tab

Well this isn't the full song obviously, this is just the cool slide bit John does in 
chorus part of this song (From 45 Seconds to 1 Minute 10)

Legend:
/= Slide up
\= Slide Down

E----------------------------------------------------------------------|
B------------------------------------12---------15--------10----12-10--|
G---12\9--12\9----7/9/14--------12/14------14/16------9/12-------------|
D----------------------------------------------------------------------|
A----------------------------------------------------------------------|
E----------------------------------------------------------------------|

E-----------------------------------------------------------------------|
B--12-10\8-----------12---------15----------------20----19--------------|
G--------------12/14------14/16----16/21----16///-----------------------|
D-----------------------------------------------------------------------|
A-----------------------------------------------------------------------|
E-----------------------------------------------------------------------|

I was pretty sick of having no tab for this part which I thought was the best thing off 
the entire album so figured it out myself
Tap to rate this tab
 
# A B C D E F G H I J K L M N O P Q R S T U V W X Y Z