Song name
# A B C D E F G H I J K L M N O P Q R S T U V W X Y Z

John 5 - Beat It tab

Hi!
This is my first tab, so dont be bad.
This is just the part that you can hear in the video that is on the John 5's web 
and youtube. Hope you like it, lets go.
I think its 100% accurate

Palm Mute= .
Slide Up= \
Slide Down= /
Hammer On= h
Pull Off= p
Bend= b
Release bend=b()



Standard Tunning (EADGBe)

e|---------------------------|---------------------------|
B|---------------------------|---------------------------|
G|---------------------------|---------------------------|
D|---------5-2-2-2/4-2-0-0---|---------5-2-2-2/4-2-0-----|
A|-------0-------------------|-------0-------------------|
E|---0-3---------------------|---0-3---------------------|
       . .                         . .

e|---------------------------|---------------------------|
B|---------------------------|---------------------------|
G|---------------------------|---------------------------|
D|---------5-2-2-2/4-2-0-0---|---------5-2-2-2/4-2-0-----|
A|-------0-------------------|-------0-------------------|
E|---0-3---------------------|---0-3---------------------|
       . .                         . .

e|-------------------------------------------------------|
B|-------------------------------------------------------|
G|------------14-16-16-16-16-14-16/19\16-14-14h16--------|
D|-------------------------------------------------------|
A|-------------------------------------------------------|
E|-0~----------------------------------------------------|

e|-------------------------------------------------------|
B|-----------------------------------------12-10---------|
G|--14-16-16-16-16b(17)-14\12-14h12-14b------------------|
D|------------------------------------------------12-9\7-|
A|-------------------------------------------------------|
E|-------------------------------------------------------|

e|-------------------------------------------------------|
B|------------7---------------8------7-------------------|
G|-9b(10)-9-9---9-7---7b(8)-9---9--9---7-----------------|
D|------------------9------------------------------------|
A|-------------------------------------------------------|
E|-------------------------------------------------------|

e|-------------------------------------------------------|
B|-------------------------------------------------------|
G|------------14-16-16-16-16-14-16/19\16-14-14h16--------|
D|-------------------------------------------------------|
A|-------------------------------------------------------|
E|-------------------------------------------------------|

e|-------------------------------------------------------|
B|---------------------------------------12-10-----------|
G|--14-16-16-16-16b(17)-14\12-14h12-14b--------12-9\7----|
D|-------------------------------------------------------|
A|-------------------------------------------------------|
E|-------------------------------------------------------|

e|-------------------------------------------------------|
B|------------7---------------8--------12-15p12----------|
G|-9b(10)-9-9---9-7---7b(8)-9---9--/14----------14-16-14-|
D|------------------9------------------------------------|
A|-------------------------------------------------------|
E|-------------------------------------------------------|

e|-------------------------------------------------------|
B|-------------------------------------------------------|
G|-------------------------------------------------------|
D|---2~~~------------------------------------------------|
A|---2~~~------------------------------------------------|
E|---0~~~------------------------------------------------|

So, here it is, hope you like it!
Tap to rate this tab
# A B C D E F G H I J K L M N O P Q R S T U V W X Y Z