Song name
# A B C D E F G H I J K L M N O P Q R S T U V W X Y Z

John 5 - Creepy Crawler tab

Listen to the music and fit all the parts.

Tuning : Standard E

This is just the first guitar.

E|---------------------------------------------|
A|---------------------------------------------|
D|-----------------------------2--------2------|
G|-0---0----0---0----0---0-------0--------0----|
B|-------3--------6--------3--------3--------3-|
e|---0--------0--------0----------0--------0---|


------------------------------------------------------|
------------------------------------------------------|
--------------------------------2---------------------|
---0---0----0---0----0---0--------0-------------------|     2X
---------3--------6--------3----------3--------3-1----|
-----0--------0--------0------------0-----1-0---------|



E|----------------------------------------------------|
A|----------------------------------------------------|
D|----------------------------------------------------|
G|----------------------------------------------------|
B|-3-8-10-10-11---3-8-11-10-10-11h/-8----3-8-10-10-11-|
e|----------------------------------------------------|

------------------------------------------------------3---|
----------13--13---12--12---10--10---8------7--7---5--2---|
------------------------------------------------------0---|
------------------------------------------------------0---|
---3-8-10-11-------10--------8-------6------5------3--0---|
-------------0--------0--------0-------0------0-------0---|

                                                            AH
E|-------------------------------------------------------------|
A|-------------------------------------------------------------|
D|-------------------------------------------------------------|
G|----------------------------------------------------------12-|
B|-3/-10-6---3/-10-6----3--8-6-3---3/-10-6---3/-10-6---3-6--12-|
e|-------------------------------------------------------------|



E|---------------------------------------------------------------------------|
A|---------------------------------------------------------------------------|
D|-----------------------------2--------2------------------------------------|
G|-0---0----0---0----0---0-------0--------0-------0---0----0---0----0---0----|
B|-------3--------6--------3--------3--------3----------3--------6--------3--|  -|
e|---0--------0--------0----------0--------0--------0--------0--------0------|   |
                                                                                 |
------------------------|                                                        |
------------------------|                                                        |
--2---------------------|
----0-------------------| -------------------------------------------------------|    2X
--------3--------3-1----|
------0-----1-0---------|



E|------------------------------------------------------|
A|------------------------------------------------------|
D|------------------------------------------------------|
G|------------------------------------------------------|
B|-3-8-10-10-11---3-8-11-10-10-11h/-8-8-10h/-6-5-6h/3---|
e|------------------------------------------------------|

-------------------------------------------------------------------------3---|
-----------------------------13--13---12--12---10--10---8------7--7---5--2---|
-------------------------------------------------------------------------0---|
-------------------------------------------------------------------------0---|
------3-8-10-10-11----3-8-10-11-------10--------8-------6------5------3--0---|
--------------------------------0--------0--------0-------0------0-------0---|




E|----------------------------------------------------------3---|
A|----------------------------------------------------------2---|
D|----------------------------------------------------------0---|     
G|----------------------------------------------------------0---|      2X
B|-3/-10-6---3/-10-6----3--8-6-3---3/-10-6---3/-10-6---3-6--0---|
e|----------------------------------------------------------3---|


E|----------------------------------------------------------|
A|-7-------7-7-7--7-----7--7-7-7-----7-7-7--5-----5-------5-|
D|-------0------------0------------0------------0-------0---|
G|-----0------------0------------0------------0-------0-----| 
B|-5-5-------7-8--5--------7-8-8-------7-5--3-------3-------|
e|-0--------------0-------------------------0-------0-------|

--------------------------------------------------------------------|
--7------7-7-7--7-------7--7--7-------7-7/9-/5--5-------5--------5--|
--------0-------------0-------------0-----------------0--------0----|
------0-------------0-------------0-----------------0--------0------| 2X 
--5-5------7-8--5-5--------7--8-8-------8/10/3--3-3--------3--------|
--0-------------0-------------------------------0-------------------|




E|----------------------------------------------------------------|
A|----------------------------------------------------------------|
D|----------------------------------------------------------------|     
G|----------------------------------------------------------------|      2X
B|-3/-10-6---3/-10-6----3--8-6-3---3/-10-6---3/-10-6---3-6h-3/2---|
e|----------------------------------------------------------------|

Final
E|-------------------------------------------------------|
A|-------------------------------------------------------|
D|---------------------------------2---------------------|
G|----0---0----0---0----0---0--------0-------------------|    
B|----------3--------6--------3----------3--------3-1----|
e|------0--------0--------0------------0-----1-0---------|
Tap to rate this tab
# A B C D E F G H I J K L M N O P Q R S T U V W X Y Z