Song name
# A B C D E F G H I J K L M N O P Q R S T U V W X Y Z

John 5 - Can I Live Again tab

-------------------------------------------------------------------------------
                             SONG NAME - Band Name
-------------------------------------------------------------------------------
Tabbed by:
E-mail:

Tuning:

e|---------------------------------------------------------------------------|
B|---12----15/12----10/12---8h10/8--------3/5/8----8/5------8/5---8/5----3/5-|
G|---------------------------------------------------------------------------|
D|---------------------------------------------------------------------------|
A|---------------------------------------------------------------------------|
E|---------------------------------------------------------------------------|

e|---------------------------------------------------------------------------|
B|--10-----8/10/12----10/12/15------5/8----10/12----10/12----8h10/8----------|
G|---------------------------------------------------------------------------|
D|---------------------------------------------------------------------------|
A|---------------------------------------------------------------------------|
E|---------------------------------------------------------------------------|

e|---------------------------------------------------------------------------|
B|------8/10/12-----10/12/15---12/15----18/17~~~~~~~~~~~~~~~~~~~~~~~~~~~~~~~~|
G|---------------------------------------------------------------------------|
D|---------------------------------------------------------------------------|
A|---------------------------------------------------------------------------|
E|---------------------------------------------------------------------------|
                                                let it ring and give some nice vibrato here
e|---------------------------------------------------------------------------|
B|----10-10-10-10p8------10-10-10-10p8---------------------------------------|
G|-------------------9------------------9------9-9-9-9p7-7h9-9p7-------------|
D|----------------------------------------------------------------10---------|
A|---------------------------------------------------------------------------|
E|---------------------------------------------------------------------------|

e|---------------------------------------8888888810101010101010--------------|
B|-----10-10-10-10p8----10-10-10-10p8----8888888810101010101010--------------|
G|--------------------9---------------9--------------------------------------|
D|---------------------------------------------------------------------------|
A|---------------------------------------------------------------------------|
E|---------------------------------------------------------------------------|
this is the only other part, I'll work on the acoustic bit in the intro, it sounds like its just Emin
e|---------------------------------------------------------------------------|
B|---------------------------------------------------------------------------|
G|---------------------------------------------------------------------------|
D|---------------------------------------------------------------------------|
A|---------------------------------------------------------------------------|
E|---------------------------------------------------------------------------|

e|---------------------------------------------------------------------------|
B|---------------------------------------------------------------------------|
G|---------------------------------------------------------------------------|
D|---------------------------------------------------------------------------|
A|---------------------------------------------------------------------------|
E|---------------------------------------------------------------------------|

e|---------------------------------------------------------------------------|
B|---------------------------------------------------------------------------|
G|---------------------------------------------------------------------------|
D|---------------------------------------------------------------------------|
A|---------------------------------------------------------------------------|
E|---------------------------------------------------------------------------|

*IMPORTANT NOTICE* most hammer on/ pull offs in this are slides but are treated like grace notes.
************************************

| /   slide up
| \   slide down
| h   hammer-on
| p   pull-off
| ~   vibrato
| +   harmonic
| x   Mute note
| b   Bend
| pb  Pre-bend
| br  Bend release
| pbr Pre-bend release
| brb Bend release bend

************************************
Tap to rate this tab
# A B C D E F G H I J K L M N O P Q R S T U V W X Y Z