Song name
# A B C D E F G H I J K L M N O P Q R S T U V W X Y Z

John 5 - Fiesty Cadavers tab

this was not made by me but there is not a decent tab for this song on this site so i am 
you learn an awesome song.


Intro x4
Eb--------------------|
Ab3-4--33-4-3-6-------|
Db----4---------------|
Gb--------------------|

Riff 1 x8
Eb--------------------|
Ab3-4--333-4-3-6------|
Db----4---------------|
Gb--------------------|

Break Off
Eb---------------------------------|
Ab3-3-3-3-3-3-3-3-3-3-3-3-3-3-3333-|
Db---------------------------------|
Gb---------------------------------|

Riff 1 x4
Eb--------------------|
Ab3-4--333-4-3-6------|
Db----4---------------|
Gb--------------------|

Riff 1 x4
Eb--------------------|
Ab3-4--333-4-3-6------|
Db----4---------------|
Gb--------------------|

Riff 2 x2
Eb------------------------------|
Ab------------------------------|
Db5/0-3-5-3-5555-6--5/0-3-5-3/6-|
Gb------------------------------|

Riff 3
Eb-----------------44444444-11111111-----------------------------------|
Ab33333333-66666666------------------33333333-66666666--------44444444-|
Db----------------------------------------------------66666666---------|
Gb---------------------------------------------------------------------|

Riff 1 x8
Eb--------------------|
Ab3-4--333-4-3-6------|
Db----4---------------|
Gb--------------------|

Riff 2 x2
Eb-----------------------------|
Ab-----------------------------|
Db5/0-3-5-3-555-6--5/0-3-5-3/6-|
Gb-----------------------------|

Riff 3 x2
Eb-----------------44444444-11111111-----------------------------------|
Ab33333333-66666666------------------33333333-66666666--------44444444-|
Db----------------------------------------------------66666666---------|
Gb---------------------------------------------------------------------|

Riff 1 x12
Eb--------------------|
Ab3-4--333-4-3-6------|
Db----4---------------|
Gb--------------------|

Bridge
Eb---4-1-------|
Ab3-6----3-6-4-|
Db----------6--|
Gb-------------|

Riff 3 (untill The End)
Eb-----------------44444444-11111111-----------------------------------|
Ab33333333-66666666------------------33333333-66666666--------44444444-|
Db----------------------------------------------------66666666---------|
Gb---------------------------------------------------------------------|
Tap to rate this tab
 
# A B C D E F G H I J K L M N O P Q R S T U V W X Y Z