Song name
# A B C D E F G H I J K L M N O P Q R S T U V W X Y Z

John And Audrey Wiggins - Has Anybody Seen Amy tab

http://new.music.yahoo.com/john-audrey-wiggins/

http://en.wikipedia.org/wiki/John_%26_Audrey_Wiggins

http://www.universalmusic.com/artist/john-audrey-wiggins

http://www.soundunwound.com/music/john-and-audrey-wiggins/15293?ref=AADP

http://www.amazon.com/John-Audrey-Wiggins/e/B000AQ2GDI/ref=ntt_mus_dp_pel

"Has Anybody Seen Amy"
John & Audrey Wiggins
CD: John & Audrey Wiggins
Track 3

Tabbed by Neil Crane

Capo 2nd fret

fill 1
-----------|
-----------|
-----------|
-----------|
-----------|
-3p2-3p2-0-|

fill 2
------------------------------|
-12-------10-------8------7---|
----12----------11------9---7-|
-------12----12------10-------|
------------------------------|
------------------------------|

********************************************
intro
 Em
---------------------------------------|
---------------------------------------|
-----------0-------------------0-------|
---0-0h2-----0h2---0-0h2-----0---2-0---|
-------------------------0h2---------2-|
-0-------0-------0---------------------|

C                D                   Em
 Looking at this town through older eyes
C                    D            Em
 It's grown much too fat to recognize
          C                  D
There's a freeway up and the park's torn down
C                          D           *fill 1
 There's not a soul that I know around

Em                C
 Has anybody seen Amy
       D                    C          G
In her tan bare feet on the summertime street
Em                  C               D
 Can her kiss still turn the winter warm
Em                C
 Or is she just a figment of
Em                A
 What I recall of yesterday's love
C                 D      *begin break
 Has anybody seen Amy anymore

break
 Em
---------------------------------------|
---------------------------------------|
-----------0-------------------0-------|
---0-0h2-----0h2---0-0h2-----0---2-0---|
-------------------------0h2---------2-|
-0-------0-------0---------------------|

C                  D                    Em
 I can't see the stars through the neon lights
            C                       D                Em  *fill 2
But there's still a crowd where the boys hang out at night
    C                       D
The songs I hear from those teenage cars
C                              D             *fill 1
Still got the beat but they've lost the heart

Em                C
 Has anybody seen Amy
       D                    C          G
In her tan bare feet on the summertime street
Em                  C               D
 Can her kiss still turn the winter warm
Em                C
 Or is she just a figment of
Em                A
 What I recall of yesterday's love
C                 D      Em
 Has anybody seen Amy anymore

Solo
C              D               Em
----------------------------------------------------|
----------------5/7-5---5-5-7--8\-7\----------------|
--7/9-7\5-9-9-7-------7--------------9\-7-7-9-9-7-7-|
----------------------------------------------------|
----------------------------------------------------|
----------------------------------------------------|

C            D Em
--------------------------------------|
-----------5-3-0----------------------| sting and guitar part combined
-9-7\5-7-5---2-0----------------------|
---------------------4h5/7-9-7-9b10r9-|
-----------------5h7------------------|
--------------------------------------|

   D
Oh you
C                           D
 can feel your age when you face the fact
        C                          D             *fill 1
You can always go home but you can never go back

Em                C
 Has anybody seen Amy
       D                    C          G
In her tan bare feet on the summertime street
Em                  C               D
 Can her kiss still turn the winter warm
Em                C
 Or is she just a figment of
Em                A
 What I recall of yesterday's love
C                 D      Em
 Has anybody seen Amy anymore
C                 D
 Has anybody seen Amy

outro
 Em
-----------------------------------|
-----------------------------------|
-----------0-----------------------|
---0-0h2-----0h2---0-0h2-----------|
-------------------------2-0-------|
-0-------0-------0-----------3-2-0-|
Tap to rate this tab
 
# A B C D E F G H I J K L M N O P Q R S T U V W X Y Z