Song name
# A B C D E F G H I J K L M N O P Q R S T U V W X Y Z

John Barry - The Persuaders tab

Chord progression 
    Am              Am9              Em              Em9
e|---5---------------7----------------7---------------7-----------------|
B|---5---------------5----------------8---------------7-----------------|
G|---5---------------5----------------9---------------9-----------------|
D|---7---------------7----------------9---------------9-----------------|
A|---7---------------7----------------7---------------7-----------------|
E|---5---------------5--------------------------------------------------|


Bass 
   Am        Am9    Em        Em9     
e|------------------------------------------------------------|
B|------------------------------------------------------------|
G|------------------------------------------------------------|
D|------------------------------------------------------------|
A|------------------7----5----7-------------------------------|
E|--5--0-3-0-5--------7----7----------------------------------|

Melody:
   Am    Am9 Em    Em9   Am    Am9  Em    Em9
e|--------------------------------------------|
B|--------------------------------------------|
G|-------2---0--------------------------------|
D|-------------4-2-----------------2-2-1-2-4--|
A|-0-2-3-----------2-----2-0-2-3--------------|
E|--------------------------------------------|

   Am     Am9  Em     Em9   
e|---------------------------------|
B|---------------------------------|
G|--------4----4-5-4--0------------|
D|---------------------------------|
A|-0-2-3---------------------------|
E|---------------------------------|


   Am     Am9    Em    Em9   
e|--------------------------|
B|--------------------------|
G|-0-2-0----0---------------|
D|--------4---4--2----------|
A|--------------------------|
E|--------------------------|
Tap to rate this tab
# A B C D E F G H I J K L M N O P Q R S T U V W X Y Z