Song name
# A B C D E F G H I J K L M N O P Q R S T U V W X Y Z

John Bura - Who Needs The Bees tab

                              Who Needs the Bees                                


                                                                       John Bura
www.johnbura.com



     S S S E  S H        E     S S S E  S Q    Q.      
E||-------------------------|-------------------------|
B||--1-1-1-0--0-------------|--1-1-1-0--0-------------|
G||-------------0--------L--|-------------0----2------|
D||-------------------------|-------------------------|
A||-------------------------|-------------------------|
E||-------------------------|-------------------------|


  S S S E  S Q.     Q       S S S E  S Q    T E  T T E  T  
--------------------3----|--------------------------------|
--1-1-1-0--0-------------|--1-1-1-0--0--------------------|
-------------0-----------|-------------0----L-2--L--------|
-------------------------|---------------------------3--L-|
-------------------------|--------------------------------|
-------------------------|--------------------------------|


  H.           S S S S    S S E  S S S E  S Q.      
-----------------------|---------------------------|
---------------1-1-1-0-|--L-0----1-1-1-0--0--------|
-----------------------|------0-------------0------|
--L--------------------|---------------------------|
-----------------------|---------------------------|
-----------------------|---------------------------|


  S S S E  S E  S S S E  S E     S S S E  S E  S S S E  S E   
--8-8-8-7--7----8-8-8-7--7----|--6-6-6-5--5----6-6-6-5--5----|
-------------8-------------8--|-------------6-------------6--|
------------------------------|------------------------------|
------------------------------|------------------------------|
------------------------------|------------------------------|
------------------------------|------------------------------|


  S S S E  S E  S S S E  S E     S S S S S S S S S S S S S S S S  
--5-5-5-4--4-0--5-5-5-4--4-0--|--2-2-2-2-2-2-2-2-2-2-2-2-2-2-2-2-|
------------------------------|----------------------------------|
------------------------------|----------------------------------|
------------------------------|----------------------------------|
------------------------------|----------------------------------|
------------------------------|----------------------------------|


  S S S S S S S S S S S S S S S S    S S S S S S S S S S S S S S S S  
--0-0-0-0-0-0-0-0-0-0-0-0-0-0-0-0-|--0-0-0-0-0-0-0-0-0-0-0-0-0-0-0-0-|
--7-7-7-7-7-7-7-7-7-7-7-7-7-7-7-7-|--7-7-7-7-7-7-7-7-7-7-7-7-7-7-7-7-|
----------------------------------|----------------------------------|
----------------------------------|----------------------------------|
----------------------------------|----------------------------------|
----------------------------------|----------------------------------|


  H.           S S S S    H        E  E  S S S S    H        S S S S Q     
-----------------------|--1--------L--1--1-------|-------------------1----|
-------------------2-4-|-------------------4-2---|---------------2-4------|
---------------1-3-----|-----------------------3-|--1--------1-3----------|
-----------------------|-------------------------|------------------------|
-----------------------|-------------------------|------------------------|
-----------------------|-------------------------|------------------------|


  Q    S S S S S S Q.        H        S S S S Q       Q.     E  S S S S Q     
--4----1------------------|-----------------1-3----|--L------3--3-1----------|
---------4-2--------------|-------------1-4--------|----------------4-1------|
-------------3-1---1------|--L--------3------------|--------------------3----|
-----------------4--------|------------------------|-------------------------|
--------------------------|------------------------|-------------------------|
--------------------------|------------------------|-------------------------|


  S S S S Q    Q    S S S S    S S E  S S E  S S E  S S E   
--------1-3----6----3-1-----|------------------------------|
----1-4-----------------4-1-|------------------------------|
--3-------------------------|--3-1-3--3-1-3--3-1-3--3-1-3--|
----------------------------|------------------------------|
----------------------------|------------------------------|
----------------------------|------------------------------|


  S S S S S S S S S S S S S S S S    S S S S S S S S S S S S S S S S  
--0-0-0-0-0-0-0-0-0-0-0-0-0-0-0-0-|--0-0-0-0-0-0-0-0-0-0-0-0-0-0-0-0-|
--7-7-7-7-7-7-7-7-7-7-7-7-7-7-7-7-|--7-7-7-7-7-7-7-7-7-7-7-7-7-7-7-7-|
----------------------------------|----------------------------------|
----------------------------------|----------------------------------|
----------------------------------|----------------------------------|
----------------------------------|----------------------------------|


  S E  E  E  E  E  E  E  S    S E  E  E  E  E  E  E  S  
--0-0--0--0--0--0--0--0--0-|--0-0--0--0--0--0--0--0--0-|
--7-7--7--7--7--7--7--7--7-|--7-7--7--7--7--7--7--7--7-|
---------------------------|---------------------------|
---------------------------|---------------------------|
---------------------------|---------------------------|
---------------------------|---------------------------|


  S S S E  S E.  S S S S S S S    S S S E  S Q    E.  S S S  
-------------------------------|----------------------------|
-------------------------------|--1-1-1-0--0----------------|
--5-5-5-4--4-0---0-0-0-0-0-0-0-|-------------0----2---2-2-2-|
-------------------------------|----------------------------|
-------------------------------|----------------------------|
-------------------------------|----------------------------|


  S S S E  S Q.     S S S S    S S S E  S Q    T E  T T E  T  
----------------------------|--------------------------------|
----------------------------|--------------------------------|
--3-3-3-2--2----------------|--3-3-3-2--2--------0--L--------|
-------------3------3-3-3-3-|-------------3----L--------1--L-|
----------------------------|--------------------------------|
----------------------------|--------------------------------|


  E  T E  T T E  T E  T E  T T E  T    S S S S S S S S H         
------------------------------------|---------------------------|
------------------------------------|---------------------------|
-------0--L-------------------------|---------------------------|
--3--L--------1--L-1--L-3--L--------|--1-1-1-1-1-1-1-1-1--------|
-------------------------------4--L-|---------------------------|
------------------------------------|---------------------------|


  H        E  E  S S S S    H        S E  E  E  S    Q    Q    S S S S S S E   
-------------------------|------------------------|-------1-------------------|
--2--------L--2--2-------|----------------------2-|--L---------2--------------|
-------------------3-1---|----------------1--3----|--------------3-1----------|
-----------------------3-|--1--------1-3----------|------------------3-1---1--|
-------------------------|------------------------|----------------------4----|
-------------------------|------------------------|---------------------------|


  H.           S S S S    H        E  E  S S S S    H        S E  E  E  S  
-----------------------|--------------3--3-------|------------------------|
---------------------1-|--4--------L-------4-----|-------------------1--4-|
-----------------0-3---|---------------------5-3-|--0----------0--3-------|
--L------------3-------|-------------------------|-----------3------------|
-----------------------|-------------------------|------------------------|
-----------------------|-------------------------|------------------------|


  Q    Q    S S S S S S E     S S E  S S E  S S E  S S E   
-------3-------------------|------------------------------|
--L---------4--------------|------------------------------|
--------------5-3-0--------|------------------------------|
--------------------3-1-3--|--3-1-3--3-1-3--3-1-3--3-1-3--|
---------------------------|------------------------------|
---------------------------|------------------------------|


  S S S S S S S S S S S S S S S S    S S S S S S S S S S S S S S S S  
----------------------------------|----------------------------------|
--0-0-0-0-0-0-0-0-0-0-0-0-0-0-0-0-|--0-0-0-0-0-0-0-0-0-0-0-0-0-0-0-0-|
--6-6-6-6-6-6-6-6-6-6-6-6-6-6-6-6-|--7-7-7-7-7-7-7-7-7-7-7-7-7-7-7-7-|
----------------------------------|----------------------------------|
----------------------------------|----------------------------------|
----------------------------------|----------------------------------|


  S S S S S S S S S S S S S S S S    S S S S S S S S S S S S S S S S  
--0-0-0-0-0-0-0-0-0-0-0-0-0-0-0-0-|--2-2-2-2-2-2-2-2-2-2-2-2-2-2-2-2-|
--0-0-0-0-0-0-0-0-0-0-0-0-0-0-0-0-|--0-0-0-0-0-0-0-0-0-0-0-0-0-0-0-0-|
----------------------------------|----------------------------------|
----------------------------------|----------------------------------|
----------------------------------|----------------------------------|
----------------------------------|----------------------------------|


  S S S S S S S S S S S S S S S S    S S S S S S S S S S S S S S S S  
----------------------------------|----------------------------------|
--2-2-2-2-2-2-2-2-2-2-2-2-2-2-2-2-|--3-3-3-3-3-3-3-3-3-3-3-3-3-3-3-3-|
--4-4-4-4-4-4-4-4-4-4-4-4-4-4-4-4-|--4-4-4-4-4-4-4-4-4-4-4-4-4-4-4-4-|
----------------------------------|----------------------------------|
----------------------------------|----------------------------------|
----------------------------------|----------------------------------|


  S S S S S S S S S S S S S S S S    S S S S S S S S S S S S S S S S  
--0-0-0-0-0-0-0-0-0-0-0-0-0-0-0-0-|--2-2-2-2-2-2-2-2-2-2-2-2-2-2-2-2-|
--0-0-0-0-0-0-0-0-0-0-0-0-0-0-0-0-|--0-0-0-0-0-0-0-0-0-0-0-0-0-0-0-0-|
----------------------------------|----------------------------------|
----------------------------------|----------------------------------|
----------------------------------|----------------------------------|
----------------------------------|----------------------------------|


  S S S S S S S S S S S S S S S S    S S S S S S S S S S S S S S S S  
--2-2-2-2-2-2-2-2-2-2-2-2-2-2-2-2-|--2-2-2-2-2-2-2-2-2-2-2-2-2-2-2-2-|
--0-0-0-0-0-0-0-0-0-0-0-0-0-0-0-0-|--0-0-0-0-0-0-0-0-0-0-0-0-0-0-0-0-|
----------------------------------|----------------------------------|
----------------------------------|----------------------------------|
----------------------------------|----------------------------------|
----------------------------------|----------------------------------|


  H        E  E  S S S S    H        S S S S Q       Q    S S S S S S Q.      
--1--------L--1--1-------|-------------------1----|--4----1------------------|
-------------------4-2---|---------------2-4------|---------4-2--------------|
-----------------------3-|--1--------1-3----------|-------------3-1---1------|
-------------------------|------------------------|-----------------4--------|
-------------------------|------------------------|--------------------------|
-------------------------|------------------------|--------------------------|


  H        S S S S Q       Q.     E  S S S S Q       S S S S Q    Q    S S S S  
-----------------1-3----|--L------3--3-1----------|--------1-3----6----3-1-----|
-------------1-4--------|----------------4-1------|----1-4-----------------4-1-|
--L--------3------------|--------------------3----|--3-------------------------|
------------------------|-------------------------|----------------------------|
------------------------|-------------------------|----------------------------|
------------------------|-------------------------|----------------------------|


  S S E  S S E  S S E  S S E     S S E  S S E  S S E  S S E   
------------------------------|------------------------------|
------------------------------|--1---1--1---1--1---1--1---1--|
--3-1-3--3-1-3--3-1-3--3-1-3--|----3------3------3------3----|
------------------------------|------------------------------|
------------------------------|------------------------------|
------------------------------|------------------------------|


  S S S S S S S S S S S S S S S S    S S S S S S S S S S S S S S S S  
----------------------------------|--0-0-0-0-0-0-0-0-2-2-2-2-2-2-2-2-|
--2-2-2-2-2-2-2-2-3-3-3-3-3-3-3-3-|--0-0-0-0-0-0-0-0-0-0-0-0-0-0-0-0-|
--4-4-4-4-4-4-4-4-4-4-4-4-4-4-4-4-|----------------------------------|
----------------------------------|----------------------------------|
----------------------------------|----------------------------------|
----------------------------------|----------------------------------|


  S S S S S S S S S S S S S S S S    S S S E  S H        E   
------------------0-0-0-0-2-2-2-2-|-------------------------|
--2-2-2-2-3-3-3-3-0-0-0-0-0-0-0-0-|--1-1-1-0--0-------------|
--4-4-4-4-4-4-4-4-----------------|-------------0--------L--|
----------------------------------|-------------------------|
----------------------------------|-------------------------|
----------------------------------|-------------------------|


  S S S E  S Q    Q.        S S S E  S Q.     Q     
-------------------------|--------------------3----|
--1-1-1-0--0-------------|--1-1-1-0--0-------------|
-------------0----2------|-------------0-----------|
-------------------------|-------------------------|
-------------------------|-------------------------|
-------------------------|-------------------------|


  S S S E  S Q    T E  T T E  T    H.           S S S S  
--------------------------------|-----------------------|
--1-1-1-0--0--------------------|---------------1-1-1-0-|
-------------0----L-2--L--------|-----------------------|
---------------------------3--L-|--L--------------------|
--------------------------------|-----------------------|
--------------------------------|-----------------------|


  S S E  S S S E  S Q.        S S S E  S E  S S S E  S E   
---------------------------|--8-8-8-7--7----8-8-8-7--7----|
--L-0----1-1-1-0--0--------|-------------8-------------8--|
------0-------------0------|------------------------------|
---------------------------|------------------------------|
---------------------------|------------------------------|
---------------------------|------------------------------|


  S S S E  S E  S S S E  S E     S S S E  S E  S S S E  S E   
--6-6-6-5--5----6-6-6-5--5----|--5-5-5-4--4-0--5-5-5-4--4-0--|
-------------6-------------6--|------------------------------|
------------------------------|------------------------------|
------------------------------|------------------------------|
------------------------------|------------------------------|
------------------------------|------------------------------|


  S S S S S S S S S S S S S S S S    S S S S S S S S S S S S S S S S  
--2-2-2-2-2-2-2-2-2-2-2-2-2-2-2-2-|--0-0-0-0-0-0-0-0-0-0-0-0-0-0-0-0-|
----------------------------------|--7-7-7-7-7-7-7-7-7-7-7-7-7-7-7-7-|
----------------------------------|----------------------------------|
----------------------------------|----------------------------------|
----------------------------------|----------------------------------|
----------------------------------|----------------------------------|


  S S S S S S S S S S S S S S S S    S S S S S S S S S S S S S S S S  
--0-0-0-0-0-0-0-0-0-0-0-0-0-0-0-0-|--0-0-0-0-0-0-0-0-0-0-0-0-0-0-0-0-|
--7-7-7-7-7-7-7-7-7-7-7-7-7-7-7-7-|--7-7-7-7-7-7-7-7-7-7-7-7-7-7-7-7-|
----------------------------------|----------------------------------|
----------------------------------|----------------------------------|
----------------------------------|----------------------------------|
----------------------------------|----------------------------------|


  S S S E  S H        E     S S S E  S Q    Q.        S S S E  S Q.     Q     
-------------------------|-------------------------|--------------------3----|
-------------------------|--1-1-1-0--0-------------|--1-1-1-0--0-------------|
--5-5-5-4--4-0--------L--|-------------0----2------|-------------0-----------|
-------------------------|-------------------------|-------------------------|
-------------------------|-------------------------|-------------------------|
-------------------------|-------------------------|-------------------------|


  S S S E  S Q    T E  T T E  T    H.           S S S S  
--------------------------------|-----------------------|
--1-1-1-0--0--------------------|---------------1-1-1-0-|
-------------0----L-2--L--------|-----------------------|
---------------------------3--L-|--L--------------------|
--------------------------------|-----------------------|
--------------------------------|-----------------------|


  S S E  S S S E  S Q.        S S S E  S E  S S S E  S E   
---------------------------|--8-8-8-7--7----8-8-8-7--7----|
--L-0----1-1-1-0--0--------|-------------8-------------8--|
------0-------------0------|------------------------------|
---------------------------|------------------------------|
---------------------------|------------------------------|
---------------------------|------------------------------|


  S S S E  S E  S S S E  S E     S S S E  S E  S S S E  S E   
--6-6-6-5--5----6-6-6-5--5----|--5-5-5-4--4-0--5-5-5-4--4-0--|
-------------6-------------6--|------------------------------|
------------------------------|------------------------------|
------------------------------|------------------------------|
------------------------------|------------------------------|
------------------------------|------------------------------|


  S S S S S S S S S S S S S S S S    S S S S S S S S S S S S S S S S  
----------------------------------|----------------------------------|
--0-0-0-0-0-0-0-0-0-0-0-0-0-0-0-0-|--0-0-0-0-0-0-0-0-0-0-0-0-0-0-0-0-|
--6-6-6-6-6-6-6-6-6-6-6-6-6-6-6-6-|--7-7-7-7-7-7-7-7-7-7-7-7-7-7-7-7-|
----------------------------------|----------------------------------|
----------------------------------|----------------------------------|
----------------------------------|----------------------------------|


  S S S S S S S S S S S S S S S S    S S S S S S S S S S S S S S S S  
--0-0-0-0-0-0-0-0-0-0-0-0-0-0-0-0-|--2-2-2-2-2-2-2-2-2-2-2-2-2-2-2-2-|
--0-0-0-0-0-0-0-0-0-0-0-0-0-0-0-0-|--0-0-0-0-0-0-0-0-0-0-0-0-0-0-0-0-|
----------------------------------|----------------------------------|
----------------------------------|----------------------------------|
----------------------------------|----------------------------------|
----------------------------------|----------------------------------|


  S S S S S S S S S S S S S S S S    S S S S S S S S S S S S S S S S  
--0-0-0-0-0-0-0-0-0-0-0-0-0-0-0-0-|--0-0-0-0-0-0-0-0-0-0-0-0-0-0-0-0-|
--7-7-7-7-7-7-7-7-7-7-7-7-7-7-7-7-|--7-7-7-7-7-7-7-7-7-7-7-7-7-7-7-7-|
----------------------------------|----------------------------------|
----------------------------------|----------------------------------|
----------------------------------|----------------------------------|
----------------------------------|----------------------------------|


  S S S S S S S S S S S S S S S S    S E  E  E  E  E  E  E  S  
--0-0-0-0-0-0-0-0-0-0-0-0-0-0-0-0-|--0-0--0--0--0--0--0--0--0-|
--7-7-7-7-7-7-7-7-7-7-7-7-7-7-7-7-|--7-7--7--7--7--7--7--7--7-|
----------------------------------|---------------------------|
----------------------------------|---------------------------|
----------------------------------|---------------------------|
----------------------------------|---------------------------|


  S E  E  E  E  E  E  E  S    S H        Q    E  S   
--0-0--0--0--0--0--0--0--0-|--0--------------------||
--7-7--7--7--7--7--7--7--7-|--7--------------------||
---------------------------|-----------------------||
---------------------------|-----------------------||
---------------------------|-----------------------||
---------------------------|-----------------------||




Duration Legend
---------------
W - whole
H - half
Q - quarter
E - 8th
S - 16th
T - 32nd
X - 64th
. - note dotted
|-n-|  - n-tuplets


Tablature Legend
----------------
L - tied note
x - dead note
g - grace note
(n) - ghost note
> - accentuded note
NH - natural harmonic
AH - artificial harmonic
TH - tapped harmonic
SH - semi harmonic
PH - pitch harmonic
h - hammer on
p - pull off
b - bend
br - bendRelease
pb - preBend
pbr - preBendRelease
brb - bendReleaseBend
\n/ - tremolo bar dip
\n - tremolo bar dive
-/n - tremolo bar Release up
/n\ - tremolo bar inverted dip
/n - tremolo bar return
-\n - tremolo bar Release down
S - shift slide
s - legato slide
/ -  slide into from below or out of upwards
\ -  slide into from above or out of downwards
~ - vibrato
W - wide vibrato
tr - trill
TP - tremolo picking
T - tapping
S - slap
P - pop
< - fade in
^ - brush up
v - brush down

Tap to rate this tab
# A B C D E F G H I J K L M N O P Q R S T U V W X Y Z