Song name
# A B C D E F G H I J K L M N O P Q R S T U V W X Y Z

John Butler Trio - What You Want tab

Open C tuning: C, G, C, G, ,C, E
Played on a 12 string guitar

x=left hand mute
~=vibrato
b=bend
/=slide
h=hammer on
p=pull off
u=up stroke
d=down stroke

intro:

------------------------------------------|
---------101010-10101010-77-x-6-6666666---|
xxx-77-x-x-x-x--x-x-x-x--xx-x-x-xxxxxxx---|
xxx-44-x-101010-10101010-77-x-6-6666666---|
xxx-00-x-9-9-9--9-9-9-9--44-x-4-4444444---|
xxx-00-x-9-9-9--9-9-9-9--44-x-4-4444444---|
dud ud d u u d  d u d u  dd d u udududu

_____________________________________________________________________________


--------------------------------------|
-----101010-10101010-77-x-6-6666666---|
77-x-x-x-x--x-x-x-x--xx-x-x-xxxxxxx---|
44-x-101010-10101010-77-x-6-6666666---|
00-x-9-9-9--9-9-9-9--44-x-4-4444444---|
00-x-9-9-9--9-9-9-9--44-x-4-4444444---|
dd d u u d  d u d u  dd d u udududu

_____________________________________________________________________________


--------------------------------------|-------------------------------------|
----0-0----------0-0---0-0---------0-0|----0-0---------0-0---0-0---------0-0|
--------------------------------7~----|-------------------------------7~----|
-0h4-4-66/7/64~-----0h4-4-66/7/6------|-0h4-4-66/7/64~----0h4-4-66/7/6------|
----------------5-5---------------5-5-|---------------5-5---------------5-5-|
--------------------------------------|-------------------------------------|


--------------------------------------|-------------------------------------|
----0-0---------0-0---0-0---------0-0-|----0-0---------0-0---0-0---------0-0|
-------------------------------7~-----|-------------------------------7~----|
-0h4-4-66/7/64~----0h4-4-66/7/6-------|-0h4-4-66/7/64~----0h4-4-66/7/6------|
---------------5-5---------------5-5--|---------------5-5---------------5-5-|
--------------------------------------|-------------------------------------|

_____________________________________________________________________________

--------------------------------------|
-----101010-10101010-77---46bp4-------|
77-x-x-x-x--x-x-x-x--xx--------54~----|
44-x-101010-10101010-77---------------|   X2
00-x-9-9-9--9-9-9-9--44---------------|
00-x-9-9-9--9-9-9-9--44---------------|
dd d u u d  d u d u  dd

------------------------12-10------10-----|
-----101010-10101010-77------12-11---12---|
77-x-x-x-x--x-x-x-x--xx----------------12-|
44-x-101010-10101010-77-------------------|   X1
00-x-9-9-9--9-9-9-9--44-------------------|
00-x-9-9-9--9-9-9-9--44-------------------|
dd d u u d  d u d u  dd

_____________________________________________________________________________


--------0---33333333-----------------------|
------------44444444-----------------------|
---0h2h4-4--00000000-----------------------|
2/4----------------------------------------|
-------------------------------------------|
-------------------------------------------|
Tap to rate this tab
# A B C D E F G H I J K L M N O P Q R S T U V W X Y Z