Song name
# A B C D E F G H I J K L M N O P Q R S T U V W X Y Z

John Butler Trio - Nowhere Man tab

-------------------------------------------------------------------------------
			     Nowhere Man - John Butler Trio
-------------------------------------------------------------------------------
Tabbed by:Leo_Monkey
Email:post a message in my account

Tuning:Half a semi-tone down (D#G#C#F#A#D#)

Start of song:
                                                                Harmonics at
                                                                the start

e|-------------------------------------------------------------|----------------|
B|--x-x-x-----------0h1----------------------------------------|---(12)---------|
G|--x-x-x----------0-----0--2--0h2-0-2-2----2----0-----0-------|(7)----(12)-(5)-|
D|--x-x-x----------------0--0--0---0-0-------------------------|----------------|
A|--x-x-x---2-----------------------------0----3----2----------|----------------|
E|--x-x-x-----3-------------------------------------------3----|----------------|

Verse:

e|---------------------------------------------------------------------------|
B|---0h1---------------------------------------------------------------------|
G|--0----0--2--0h2-0-2-2------2-----0----0-----------------------------------|
D|-------0--0--0---0-0-------------------------------------------------------|
A|-------------------------0-----3-----2-------------------------------------|
E|------------------------------------------3--------------------------------|

Bridge: or i think it is

just do a light palm mute at the bridge and strum C and Am chord like this:

e|--------------------------------|
B|--------------------------------|
G|----0-0-0-----2-2-2-------------|x4
D|----2-2-2-----2-2-2-------------|
A|--3---------0-------------------|
E|--------------------------------|

There You go one of my favourite JBT songs on there new album Grand National
Tap to rate this tab
 
# A B C D E F G H I J K L M N O P Q R S T U V W X Y Z