Song name
# A B C D E F G H I J K L M N O P Q R S T U V W X Y Z

John Butler Trio - Old Man tab

|-------------7--7-----|
|-------9-9-9--9--9----|
|-------7-7-7--7--7----|*4
|----------------------|
|----------------------|
|---0------------------|


|------------------------------------|
|-------2----------------------------|
|-----------------------2---0--2-----|*4
|-----4---4-----2-----2---2----------|
|---2--------------------------------|
|-------------3-----0----------------|

That basically the start of it.


then during the singing it goes like this.

|-------------7--7-----|
|-------9-9-9--9-------|
|-------7-7-7--7-------|*4
|----------------9-9---|
|----------------7-7---|
|---0------------------|



By the way im only 14 ,so if this  is wrong its probablly lack of experiance.

Tap to rate this tab
 
# A B C D E F G H I J K L M N O P Q R S T U V W X Y Z