Song name
# A B C D E F G H I J K L M N O P Q R S T U V W X Y Z

John Butler Trio - Home Is Where The Heart Is tab

 this is the basic outline or frame work of the song of course John's playin
an amplified 12 string with wah etc. therefore dont be to cut up if ur ole six
string acoustic dusn't sound like the actual track. plus it has a lot of JOhn's
little fills
in it.

E-----------------------------------------------------------------------------------|
C----0-----0-----------0-----0--------------0-----0---------------------------------|
G----0-------0---------0-------0------------0-------0-------------------------------|
C--0-----------0-----0-----------4h5-0--0-------------0----5/6/5/3/5-5/6/5/3/5/3----|
G------3h5---------------3h5--------------------3h5---------------------------------|
C----------------3~-------------------------------------3~-5/6/5/3/5-5/6/5/3/5/3----|

verse                         Chorus
E--------------------        E-------------------------------------------------|
C----0-----0---------        C-------------------------------------------------|
G----0-------0-------        G--3-3-3-3-3-3--5-5-5-5-5-5----0-----0--0----0--0-|
C--0-----------0-----        C--3-3-3-3-3-3--5-5-5-5-5-5----0-----0--0----0--0-|
G------3h5-----------        G--3-3-3-3-3-3--5-5-5-5-5-5--0-----0----0--0----0-|
C----------------3~--        C-------------------------------------------------|

Chorus continued..
E---------------------------------------------------|
C---------------------------------------------------|
G--3-3-3-3-3-3--5-5-5-5-5-5-------------------------|
C--3-3-3-3-3-3--5-5-5-5-5-5--5/6/5/3/5/6/5/3/5/3/0--|
G--3-3-3-3-3-3--5-5-5-5-5-5----------------------0--|
C----------------------------5/6/5/3/5/6/5/3/5/3/0--|


Bridge kinda riff
E---------------------------------------------------------------------------------------------|
C--0--0--0----0--0--0--0--0--0----------------------------------------------------------------|
G--0--0--0----0--0--0--0--0--0-------------REPEAT--bout--13X--then----------------------------|
C--0--3--0--5/6--5--3--5--3--0---------------------------------------5/6/5/3/5-5/6/5/3/5/3----|
G---------------------------------------------------------------------------------------------|
C----------------------------0--3--5--5~-----------------------------5/6/5/3/5-5/6/5/3/5/3----|
John also does a fair bit of improvising within this part so jsut listen
and muck around a bit with the notes he's using


Second Verse Riff (bass riff played on double bass there fore with alot of
sustain)
E--------------------------------------------------------------------------------------|
C--------------------------------------------------------------------------------------|
G--------------------------------------------------------------------------------------|
C---0---0----0--3--0---0---------REPEAT-6X---Then-back-to-1st-verse-riff-then chorus---|
G--------------------------------------------------------------------------------------|
C---0---0----0--3--0---0---------------------------------------------------------------|
Tap to rate this tab
# A B C D E F G H I J K L M N O P Q R S T U V W X Y Z