Song name
# A B C D E F G H I J K L M N O P Q R S T U V W X Y Z

John Butler Trio - One Way Road tab

Band: John Butler Trio
Song: One Way Road
Tabbed By: Ashsanlan27
Any Questions or Comments E-mail me at: chris_rox1997@hotmail.com

Tuning:

Guitar I: E A D G B e

Country Folk Q= ?
Time Signature 4/4

Gtr 1
Intro:
Hint: Use "Neck Slider" (Little cylinder shape around your ring finger.)
Or use open chords: G D Em C

     1
|----21//---------------------------|
|----21//---------------------------|
|----21//---------------------------|
|----21//---------------------------|
|----21//---------------------------|
|----21//---------------------------|

     1  +  2  +  3 + 4 +
|-----------------------------------|
|-----------------------------------|
|-----------------------------------|
|----10-10-------7-7----------------|
|----10-10-10-10-7-7-8-8------------|
|----------10-10-----8-8------------|

     1  +  2  +  3 + 4 +
|-----------------------------------|
|-----------------------------------|
|-----------------------------------|
|----10-10-------7-7----------------|
|----10-10-10-10-7-7-8-8------------|
|----------10-10-----8-8------------|

     1  +  2  +  3 + 4 +
|-----------------------------------|
|-----------------------------------|
|-----------------------------------|
|----10-10-------7-7----------------|
|----10-10-10-10-7-7-8-8------------|
|----------10-10-----8-8------------|

     1  +  2  +  3 + 4 +
|-----------------------------------|
|-----------------------------------|
|-----------------------------------|
|----10-10-------7-7----------------|
|----10-10-10-10-7-7-8-8------------|
|----------10-10-----8-8------------|
Tap to rate this tab
# A B C D E F G H I J K L M N O P Q R S T U V W X Y Z