Song name
# A B C D E F G H I J K L M N O P Q R S T U V W X Y Z

John Butler Trio - Used To Get High Acoustic tab

-------------------------------------------------------------------------------
			     Used to Get High (Acoustic) - Band Name
-------------------------------------------------------------------------------
Tabbed by:Cameron Macey
Email:i_like_cheese4lunch@hotmail.com

This is the way John plays it by himself live


Tuning:Open C (CGCGCE)
Verse played the same through whole song
E|-------------------------------------------------------------------------|
C|-------------------------------------------------------------------------|
G|-------------------------------------------------------------------------|
C|-------------------------------------------------------------------------|
G|------3h5p3h5p3-----3h5p3h5p3------1--1h3p1h3p1--------1h3p1h3p1---------|
C|---5-------------5---------------------------------3---------------------|
Chorus and 3rd verse
E|-------------------------------------------------------------------------|
C|-------------------------------------------------------------------------|
G|-------------------------------------------------------------------------|
C|----1------5------3------------------------------------------------------|
G|----1------5------3------------------------------------------------------|
C|----1------5------3------------------------------------------------------|



************************************


| h   hammer-on
| p   pull-off

************************************
Tap to rate this tab
 
# A B C D E F G H I J K L M N O P Q R S T U V W X Y Z