Song name
# A B C D E F G H I J K L M N O P Q R S T U V W X Y Z

John Butler Trio - One Way Road tab

Band: John Butler Trio
Song: One Way Road
Tabbed By: Ashsanlan27
Any Questions or Comments E-mail me at: chris_rox1997@hotmail.com

Edited on Monday March 22nd 5:31pm

Tuning:

Guitar I: E A D G B e

Country Folk Q= ?
Time Signature 4/4

Gtr 1
Intro:
Hint: Use "Neck Slider" (Little cylinder shape around your ring finger.
Or use open chords: G D Em C

     W                                       
|----21//---------------------------|
|----21//---------------------------|
|----21//---------------------------|
|----21//---------------------------|
|----21//---------------------------|
|----21//---------------------------|

     E  E  E  E  E E E E                 E  E  E  E  E E E E
|-----------------------------------|-----------------------------------| 
|-----------------------------------|-----------------------------------|
|-----------------------------------|-----------------------------------|
|----10-10-------7-7----------------|----10-10-------7-7----------------|
|----10-10-10-10-7-7-8-8------------|----10-10-10-10-7-7-8-8------------|
|----------10-10-----8-8------------|----------10-10-----8-8------------| 

     E  E  E  E  E E E E                 E  E  E  E  E E E E
|-----------------------------------|-----------------------------------| 
|-----------------------------------|-----------------------------------|
|-----------------------------------|-----------------------------------|
|----10-10-------7-7----------------|----10-10-------7-7----------------|
|----10-10-10-10-7-7-8-8------------|----10-10-10-10-7-7-8-8------------|
|----------10-10-----8-8------------|----------10-10-----8-8------------| 

Verse 1:

        E  E  E  E E E E E                  E  E  E  E E E E E
|-----------------------------------|-----------------------------------|
|-----------------------------------|-----------------------------------|
|-----------------------------------|-----------------------------------|
|-------10-------7-7-7--------------|-------10-------7-7-7--------------|
|-------10-10-10-7-7-7-8-8----------|-------10-10-10-7-7-7-8-8----------|
|----------10-10-------8-8----------|----------10-10-------8-8----------|


        E  E  E  E E E E E                  E  E  E  E   H    H
|-----------------------------------|-----------------------------------|
|-----------------------------------|-----------------------------------|
|-----------------------------------|-----------------------------------|
|-------10-------7-7-7--------------|-------10-------7------------------|
|-------10-10-10-7-7-7-8-8----------|-------10-10-10-7------------------|
|----------10-10-------8-8----------|----------10-10--------------------|
       

        E  E  E  E E E E E                  E  E  E  E E E E E
|-----------------------------------|-----------------------------------|
|-----------------------------------|-----------------------------------|
|-----------------------------------|-----------------------------------|
|-------10-------7-7-7--------------|-------10-------7-7-7--------------|
|-------10-10-10-7-7-7-8-8----------|-------10-10-10-7-7-7-8-8----------|
|----------10-10-------8-8----------|----------10-10-------8-8----------|

        E  E  E  E E E E E                  E  E  E  E E E E E
|-----------------------------------|-----------------------------------|
|-----------------------------------|-----------------------------------|
|-----------------------------------|-----------------------------------|
|-------10-------7-7-7--------------|-------10-------7-7-7--------------|
|-------10-10-10-7-7-7-8-8----------|-------10-10-10-7-7-7-8-8----------|
|----------10-10-------8-8----------|----------10-10-------8-8----------|
          
Pre- Chorus:

    E  E  E  E  E  E  E  E              E  E  E  E  E  E  E  E
|-----------------------------------|-----------------------------------|
|-----------------------------------|-----------------------------------|
|-----------------------------------|-----------------------------------|
|------10----10----10----10---------|------10----10----10----10---------|
|-----------------------------------|-----------------------------------|
|---10----10----10----10------------|---10----10----10----10------------|

    E  E  E  E  E  E  E  E              E  E  E  E  E  E  E  E
|-----------------------------------|-----------------------------------|
|-----------------------------------|-----------------------------------|
|-----------------------------------|-----------------------------------|
|------10----10----10----10---------|------10----10----10----10---------|
|-----------------------------------|-----------------------------------|
|---10----10----10----10------------|---10----10----10----10------------|

    E S S   S S   S S   S S
|-----------------------------------|
|---3-0h3p0-------------------------|
|-----------0h3p0-------------------|
|-----------------0h2p0-------------|
|-----------------------0h2p0-------|
|-----------------------------------|        

Chorus:

     E  E  E  E  E E E E                 E  E  E  E  E E E E
|-----------------------------------|-----------------------------------| 
|-----------------------------------|-----------------------------------|
|-----------------------------------|-----------------------------------|
|----10-10-------7-7----------------|----10-10-------7-7----------------|
|----10-10-10-10-7-7-8-8------------|----10-10-10-10-7-7-8-8------------|
|----------10-10-----8-8------------|----------10-10-----8-8------------| 

     E  E  E  E  E E E E                 E  E  E  E  E E E E
|-----------------------------------|-----------------------------------| 
|-----------------------------------|-----------------------------------|
|-----------------------------------|-----------------------------------|
|----10-10-------7-7----------------|----10-10-------7-7----------------|
|----10-10-10-10-7-7-8-8------------|----10-10-10-10-7-7-8-8------------|
|----------10-10-----8-8------------|----------10-10-----8-8------------| 

     E  E  E  E  E E E E                 E  E  E  E  E E E E
|-----------------------------------|-----------------------------------| 
|-----------------------------------|-----------------------------------|
|-----------------------------------|-----------------------------------|
|----10-10-------7-7----------------|----10-10-------7-7----------------|
|----10-10-10-10-7-7-8-8------------|----10-10-10-10-7-7-8-8------------|
|----------10-10-----8-8------------|----------10-10-----8-8------------| 

Verse 2:

        E  E  E  E E E E E                  E  E  E  E E E E E
|-----------------------------------|-----------------------------------|
|-----------------------------------|-----------------------------------|
|-----------------------------------|-----------------------------------| Or some little slides
|-------10-------7-7-7--------------|-------10-------7-7-7--------------| and little licks that
|-------10-10-10-7-7-7-8-8----------|-------10-10-10-7-7-7-8-8----------| sound cool.
|----------10-10-------8-8----------|----------10-10-------8-8----------|

        E  E  E  E E E E E                  E  E  E  E E E E E
|-----------------------------------|-----------------------------------|
|-----------------------------------|-----------------------------------|
|-----------------------------------|-----------------------------------|
|-------10-------7-7-7--------------|-------10-------7-7-7--------------|
|-------10-10-10-7-7-7-8-8----------|-------10-10-10-7-7-7-8-8----------|
|----------10-10-------8-8----------|----------10-10-------8-8----------|

        E  E  E  E E E E E                  E  E  E  E E E E E
|-----------------------------------|-----------------------------------|
|-----------------------------------|-----------------------------------|
|-----------------------------------|-----------------------------------|
|-------10-------7-7-7--------------|-------10-------7-7-7--------------|
|-------10-10-10-7-7-7-8-8----------|-------10-10-10-7-7-7-8-8----------|
|----------10-10-------8-8----------|----------10-10-------8-8----------|

        E  E  E  E E E E E                  E  E  E  E E E E E
|-----------------------------------|-----------------------------------|
|-----------------------------------|-----------------------------------|
|-----------------------------------|-----------------------------------|
|-------10-------7-7-7--------------|-------10-------7-7-7--------------|
|-------10-10-10-7-7-7-8-8----------|-------10-10-10-7-7-7-8-8----------|
|----------10-10-------8-8----------|----------10-10-------8-8----------|

Pre- Chorus:

    E  E  E  E  E  E  E  E              E  E  E  E  E  E  E  E
|-----------------------------------|-----------------------------------|
|-----------------------------------|-----------------------------------|
|-----------------------------------|-----------------------------------|
|------10----10----10----10---------|------10----10----10----10---------|
|-----------------------------------|-----------------------------------|
|---10----10----10----10------------|---10----10----10----10------------|

    E  E  E  E  E  E  E  E              E  E  E  E  E  E  E  E
|-----------------------------------|-----------------------------------|
|-----------------------------------|-----------------------------------|
|-----------------------------------|-----------------------------------|
|------10----10----10----10---------|------10----10----10----10---------|
|-----------------------------------|-----------------------------------|
|---10----10----10----10------------|---10----10----10----10------------|

        W               W                   W                W               
|-----------------------------------|-----------------------------------|
|-----------------------------------|-----------------------------------|
|-----------------------------------|-----------------------------------|
|-----------------------------------|-----------------------------------|
|-----------------------------------|-----------------------------------|
|-----------------------------------|-----------------------------------|

        W               W                   W                W               
|-----------------------------------|-----------------------------------|
|-----------------------------------|-----------------------------------|
|-----------------------------------|-----------------------------------|
|-----------------------------------|-----------------------------------|
|-----------------------------------|-----------------------------------|
|-----------------------------------|-----------------------------------|

Solo:

    E S S   S S   S S   S S            S S S S S S S S S S S S S S S S S S
|-----------------------------------|---------------------------------------|
|---3-0h3p0-------------------------|---------------------------------------|
|-----------0h3p0-------------------|--0h3p0-0h3p0-0h3p0-0h3p0-0h3p0-0h3p0--|
|-----------------0h2p0-------------|---------------------------------------|
|-----------------------0h2p0-------|---------------------------------------|
|-----------------------------------|---------------------------------------|       
    
    E S S   S S   S S   S S            S S S S S S S S S S S S S S S S S S
|-----------------------------------|---------------------------------------|
|---3-0h3p0-------------------------|---------------------------------------|
|-----------0h3p0-------------------|--0h3p0-0h3p0-0h3p0-0h3p0-0h3p0-0h3p0--|
|-----------------0h2p0-------------|---------------------------------------|
|-----------------------0h2p0-------|---------------------------------------|
|-----------------------------------|---------------------------------------|   

   S S S S S S S S S S S S S S S S S S     S S S S S S S S S S S S S S S S S S
|---------------------------------------|---------------------------------------|
|---------------------------------------|---------------------------------------|
|--0h7p0-0h9p0-0h5p0-0h7p0-0h9p0-0h5p0--|--0h7p0-0h9p0-0h5p0-0h7p0-0h9p0-0h5p0--|
|---------------------------------------|---------------------------------------|
|---------------------------------------|---------------------------------------|
|---------------------------------------|---------------------------------------|

Chorus:

     E  E  E  E  E E E E                 E  E  E  E  E E E E
|-----------------------------------|-----------------------------------| 
|-----------------------------------|-----------------------------------|
|-----------------------------------|-----------------------------------|
|----10-10-------7-7----------------|----10-10-------7-7----------------|
|----10-10-10-10-7-7-8-8------------|----10-10-10-10-7-7-8-8------------|
|----------10-10-----8-8------------|----------10-10-----8-8------------| 

     E  E  E  E  E E E E                 E  E  E  E  E E E E
|-----------------------------------|-----------------------------------| 
|-----------------------------------|-----------------------------------|
|-----------------------------------|-----------------------------------|
|----10-10-------7-7----------------|----10-10-------7-7----------------|
|----10-10-10-10-7-7-8-8------------|----10-10-10-10-7-7-8-8------------|
|----------10-10-----8-8------------|----------10-10-----8-8------------| 

     E  E  E  E  E E E E                 E  E  E  E  E E E E
|-----------------------------------|-----------------------------------| 
|-----------------------------------|-----------------------------------|
|-----------------------------------|-----------------------------------|
|----10-10-------7-7----------------|----10-10-------7-7----------------|
|----10-10-10-10-7-7-8-8------------|----10-10-10-10-7-7-8-8------------|
|----------10-10-----8-8------------|----------10-10-----8-8------------| 

     E  E  E  E  E E E E                 E  E  E  E  E E E E
|-----------------------------------|-----------------------------------| 
|-----------------------------------|-----------------------------------|
|-----------------------------------|-----------------------------------|
|----10-10-------7-7----------------|----10-10-------7-7----------------|
|----10-10-10-10-7-7-8-8------------|----10-10-10-10-7-7-8-8------------|
|----------10-10-----8-8------------|----------10-10-----8-8------------| 

     E  E  E  E  E E E E                 E  E  E  E  E E E E
|-----------------------------------|-----------------------------------| 
|-----------------------------------|-----------------------------------|
|-----------------------------------|-----------------------------------|
|----10-10-------7-7----------------|----10-10-------7-7----------------|
|----10-10-10-10-7-7-8-8------------|----10-10-10-10-7-7-8-8------------|
|----------10-10-----8-8------------|----------10-10-----8-8------------| 

     E  E  E  E  E E E E                 E  E  E  E  E E E E
|-----------------------------------|-----------------------------------| 
|-----------------------------------|-----------------------------------|
|-----------------------------------|-----------------------------------|
|----10-10-------7-7----------------|----10-10-------7-7----------------|
|----10-10-10-10-7-7-8-8------------|----10-10-10-10-7-7-8-8------------|
|----------10-10-----8-8------------|----------10-10-----8-8------------| 



Tablature Legend
----------------
 h   - hammer-on
 p   - pull-off
 b   - bend
 pb  - pre-bend
 r   - bend release (if no number after the r, then release immediately)
 /\  - slide into or out of (from/to "nowhere")
 s   - legato slide
 S   - shift slide
  - natural harmonic
[n]  - artificial harmonic
n(n) - tapped harmonic
 ~   - vibrato
 tr  - trill
 T   - tap
 TP  - trem. picking
 PM  - palm muting
\n/  - tremolo bar dip; n = amount to dip
 \n  - tremolo bar down
 n/  - tremolo bar up
/n\  - tremolo bar inverted dip
 =   - hold bend; also acts as connecting device for hammers/pulls
 <>  - volume swell (louder/softer)
 x   - on rhythm slash represents muted slash
 o   - on rhythm slash represents single note slash

Misc Legend
-----------
 |  - bar
||  - double bar
||o - repeat start
o|| - repeat end
*|  - double bar (ending)
 :  - bar (freetime)
 $  - Segno
 &  - Coda
Tempo markers -  = BPM(8/16=s8/s16), where s8 = swing 8ths, s16 = swing 16ths
Tap to rate this tab
# A B C D E F G H I J K L M N O P Q R S T U V W X Y Z