Song name
# A B C D E F G H I J K L M N O P Q R S T U V W X Y Z

John Butler Trio - One Way Road tab

----------------------------------------------------------------------------
		    ONE WAY ROAD - John Butler Trio
----------------------------------------------------------------------------
Tabbed by: 2guitargod4 (sam)
Email: sam.rocks.123@hotmail.com

Tuning: standard EADGBe

e|-------------------------------------------------------------------|
B|-0-3--0h3---3-0h3---------3-------0h3------------------------------|
G|----------4-------2b4r2-----2b4r2-----2p0-----0--------0-----------|
D|------------------------------------------4b5---4b5-4b5--4b5r4-----|
A|-------------------------------------------------------------------|
E|-------------------------------------------------------------------|

e|-------------------------------------------------------------------|
B|-3-0h3---3-------3p0---------------------------------------------3-|
G|-------4---2b4r2-----2b4r2p0-----0------0-----0------2p0-0h2-4b5---|
D|-----------------------------3b4-----------------------------------|
A|-------------------------------------------------------------------|
E|------------------------------------2b3---2b3---2b3----------------|

e|-2b3r2--3p0-----0--------------------------------------------------|
B|------------3p0---3b4r3p0---------3p0-5p0-3p0-------------------0--|
G|--------------------------4b5r4p0-------------2p0-------0----4--4--|
D|--------------------------------------------------4b5r4---/5-5-(5)-|
A|-------------------------------------------------------------------|
E|-------------------------------------------------------------------|

e|----------------------------------------------/15----|
B|-----3-----5-----7------8---------------------/15----|
G|-0h4---0h7---0h9---0h11---10/12-12-(12)-12\0-/(15)---|
D|--------------------------10/12-12-(12--12\0---------|
A|--------------------------10/12-12-(12)-12\0---------|
E|-----------------------------------------------------|

Very messy nd hard to figure out but good luck.


************************************

| /   slide up
| \   slide down
| h   hammer-on
| p   pull-off
| ~   vibrato
| +   harmonic
| x   Mute note
| b   Bend
| pb  Pre-bend
| br  Bend release
| pbr Pre-bend release
| brb Bend release bend

************************************
Tap to rate this tab
# A B C D E F G H I J K L M N O P Q R S T U V W X Y Z