Song name
# A B C D E F G H I J K L M N O P Q R S T U V W X Y Z

John Butler Trio - Johnnys Gone tab

The John Butler Trio - Johnny's Gone

Tabbed by Sinuso


Capo 5


Intro, Verse 1,2 & 4 (keep on strumming the last chord at the end of the 4th verse 
don't hear no sound")

E|----------------------|
B|----------------------|
G|----------------------|
D|----------------------|
A|--5----7----3----3----|
E|--3----5----1----1----|


Chorus

E|----------------------|
B|----------------------|
G|----------------------|
D|--5----7----3----3----|
A|--5----7----3----3----|
E|--3----5----1----1----|


Verse 3 (the last time, the 2 last chords are played for 2 bars)


    C    G    Am

E|--0----0----1---------|
B|--1----0h1--2---------|
G|--0----0----2---------|
D|--2----0h2--0---------|
A|--3--------------3----|
E|-------3---------1----|


Bridge

E|--0----0-0-0----0---0-0----0---0-0---3----|
B|--3----3-3-1----1---1-1----1---1-0h1-1----|
G|--2----0-0-2----0---0-2----0---0-0---0----|
D|--0----0-2-3----2p0-0-2----2p0-0-0h2-2----|
A|--------------------3-0--------3----------|
E|---------------------------------3---3----|

E|--0----0-0-0----0---0-0----0---0-0---3--------------|
B|--3----3-3-1----1---1-1----1---1-0h1-1--------------|
G|--2----0-0-2----0---0-2----0---0-0---0--------------|
D|--0----0-2-3----2p0-0-2----2p0-0-0h2-2--------------|
A|--------------------3-0--------3----------3----3----|
E|---------------------------------3---3----1----1----|


Outro (end on C)

    C  G  Am

E|--0--0--1-------|
B|--1--0--2-------|
G|--0--0--2-------|
D|--2--0--0-------|
A|--3--------3----|
E|-----3-----1----|

There you go. I'm kind of new at writing tabs so I hope it's clear and accurate enough 
for the bridge)...
Check out the video on youtube (http://www.youtube.com/watch?v=uGppDxtrPto) it might 
for the rythm.
Tap to rate this tab
# A B C D E F G H I J K L M N O P Q R S T U V W X Y Z