Song name
# A B C D E F G H I J K L M N O P Q R S T U V W X Y Z

John Butler Trio - Close To You tab

-------------------------------------------------------------------------------
			     CLOSE TO YOU - John Butler Trio
-------------------------------------------------------------------------------
Tabbed by: chucky176
Email: torge.santjer@gmail.com

Tuning: Standard EADGBE

Intro (Play this though the hole song too)

e|--------------------------------------------------------------------------|
B|--------------------------------------------------------------------------|
G|--------------------------------------------------------------------------|
D|--------------------------------------------------------------------------|
A|-0-0-2-3-2-0---0-3/5-6-5-3------------------------------------------------|
E|-------------3------------------------------------------------------------|

Bridge

e|--------------------------------------------------------------------------|
B|--------------------------------------------------------------------------|
G|--------------------------------------------------------------------------|
D|-3--5--7--5---------------------------------------------------------------|
A|-3--5--7--5---------------------------------------------------------------|
E|-1--3--5--3---------------------------------------------------------------|

Chorus/Refrain

e|--------------------------------------------------------------------------|
B|--------------------------------------------------------------------------|
G|--------------------------------------------------------------------------|
D|-3--5--3--5---------------------------------------------------------------|
A|-3--5--3--5---------------------------------------------------------------|
E|-1--3--1--3---------------------------------------------------------------|

Bridge

e|--------------------------------------------------------------------------|
B|--------------------------------------------------------------------------|
G|--------------------------------------------------------------------------|
D|-7--5--3--5---------------------------------------------------------------|
A|-7--5--3--5---------------------------------------------------------------|
E|-5--3--1--3---------------------------------------------------------------|

Chorus/Refrain

e|--------------------------------------------------------------------------|
B|--------------------------------------------------------------------------|
G|--------------------------------------------------------------------------|
D|-3--5--3--5---------------------------------------------------------------|
A|-3--5--3--5---------------------------------------------------------------|
E|-1--3--1--3---------------------------------------------------------------|

The solo was too hard to figure out, i have to say sorry here.
But heres the guitar part after the solo.

e|-5--5--5--5---------------------------------------------------------------|
B|-5--5--5--5---------------------------------------------------------------|
G|-5--5--5--5---------------------------------------------------------------|
D|--------------------------------------------------------------------------|
A|--------------------------------------------------------------------------|
E|--------------------------------------------------------------------------|



************************************

| /   slide up
| \   slide down
| h   hammer-on
| p   pull-off
| ~   vibrato
| +   harmonic
| x   Mute note
| b   Bend
| pb  Pre-bend
| br  Bend release
| pbr Pre-bend release
| brb Bend release bend

************************************
Tap to rate this tab
 
# A B C D E F G H I J K L M N O P Q R S T U V W X Y Z